Oops, an error
Loading. Please wait.

Kazi Ko Te Ljubi Dok Sam Ja Na Strazi Tab

4,686 views 6 this week
1 commentread comment
1 2 3 4 5
1 last vote to show rating
add to favorites
launch autoscroll
font size
0
reset
how to read this tab
guitar tuner
Autoscroll
slow
fast
+/-
esc
set tempo
stop
Help us to improve Ultimate-Guitar.com Take our survey!
×
Author
Riblja Corba - Kazi, Ko Te Ljubi Dok Sam Ja Na Strazi

Intro
   Am          F           Dm  G           E
 {----------alternate-------}{--sweep--------------------|{-alternate-}
E--------------------------------------------------------|
H--10-12^13^12----12^13^12-----13^12------------13-12----|
G--------------10--------------------12----9-12----------|
D--------------------------12-----------12---------------|
A--------------------------------------------------------|
E--------------------------------------------------------|

   Am          F           Dm  G           E          Am
 {----------alternate-------}{--sweep----}{---alternate------|
E------------------------------------------------------------|
H--10-12^13^12----12^13^12-----13^12------------13-12-10~~---|
G--------------10--------------------12----9-12--------------|
D--------------------------12-----------12-------------------|
A------------------------------------------------------------|
E------------------------------------------------------------|


Pratnja:
Figura1: 2x
   Am                              G
     P.M.-------------------------}  P.M.-----------------------------|
E---------------------------------------------------------------------|
H---------------------------------------------------------------------|
G---------------------------------------------------------------------|
D---------------------------------------------------------------------|
A--7-7-7-7-7-7-7-7-7-7-7-7-7-7-7-7-5-5-5-5-5-5-5-5-5-5-5-5-5-5-5-5----|
E--5-5-5-5-5-5-5-5-5-5-5-5-5-5-5-5-3-3-3-3-3-3-3-3-3-3-3-3-3-3-3-3----|

Figura2
   F   G                F  G                 F    G                 Am
       {--alternate--}      {--alternate--}     {--alternate--------------|
E-------------------------------------------------------------------------|
H-------------------------------------------------------------------------|
G-------------------------------------------------------------------------|
D------5-5-3-3-2-2-0-0------5-5-3-3-2-2-0-0-------5-5-3-3-2-2-0-0---------|
A--3--------------------3--------------------3----------------------7-----|
E--1--------------------1--------------------1----------------------5-----|

Figura3:
   F                               Dm
     P.M.------------------------}    P.M.-----------------------------------------|
E----------------------------------------------------------------------------------|
H----------------------------------------------------------------------------------|
G----------------------------------------------------------------------------------|
D----------------------------------------------------------------------------------|
A--3-3-3-3-3-3-3-3-3-3-3-3-3-3-3-3-12-12-12-12-12-12-12-12-12-12-12-12-12-12-12-12-|
E--1-1-1-1-1-1-1-1-1-1-1-1-1-1-1-1-10-10-10-10-10-10-10-10-10-10-10-10-10-10-10-10-|

   G                               Em
     P.M.--------------------------------------------------|
E----------------------------------------------------------|
H----------------------------------------------------------|
G----------------------------------------------------------|
D-----------------------------------x-9-9-9-9-x-9-9-9-9----|
A--5-5-5-5-5-5-5-5-5-5-5-5-5-5-5-5--x-7-7-7-7-x-7-7-7-7----|
E--3-3-3-3-3-3-3-3-3-3-3-3-3-3-3-3-------------------------|
Ref:
   F  Em Am                  F  Em Am
            {--alternate--}           {--alternate-------|
E--------------------------------------------------------|
H--------------------------------------------------------|
G--------------------------------------------------------|
D--------2--------0----------------2--------0------------|
A--2--2--0--0-2-3---3-2-0----2--2--0--0-2-3---3-2-0------|
E--1--0-------------------3--1--0-------------------3----|

   F               Em              Am
     P.M.--------}   P.M.-------}    P.M.--------} {--alternate------|
E--------------------------------------------------------------------|
H--------------------------------------------------------------------|
G--------------------------------------------------------------------|
D----------------------------------2-2-2-2-2-2-2-2-------0-----------|
A--3-3-3-3-3-3-3-3-2-2-2-2-2-2-2-2-0-0-0-0-0-0-0-0-0-2-3---3-2-0-----|
E--1-1-1-1-1-1-1-1-0-0-0-0-0-0-0-0-------------------------------3---|

   F               Em              Am
     P.M.--------}   P.M.--------------------------|
E--------------------------------------------------|
H--------------------------------------------------|
G--------------------------------------------------|
D----------------------------------x-2-2-2-2-x2----|
A--3-3-3-3-3-3-3-3-2-2-2-2-2-2-2-2-x-0-0-0-0-x0----|
E--1-1-1-1-1-1-1-1-0-0-0-0-0-0-0-0-----------------|

Tekst i akordi:

Am                 G
Kapetan se seta, a ispred njega ceta,
Am                       G
I kaze: "Ti, some!" Ja? "Ides na strazu, dabome!"
F        G           F         G
I dok mu psujem mamu mislim na tebe samu,
F         G           Am
Vec vidim nekog skota da se tu mota!

Rado ide Srbin u vojnike, dva ga vuku a trojica tuku,
Neko ipak strazu cuva da nas vetar ne oduva.
Ne vole nas Bugari, ni Austro - Ugari,
Mrze nas Japanci i Liliputanci!

F                            Dm
Dok ja nasu otadzbinu cuvam, umesto da sedim i da duvam,
G                            Em
Dok se bavis oruzanom silom, ti se kreses sa nekim civilom!
Lepo priznaj, pa cu biti blazi, KO TE LJUBI DOK SAM JA NA STRAZI?
Nije lepo da ti zapnes svojski, dok ja sluzim narodu u vojski...

F           Em            Am
KO TE LJUBI DOK SAM JA NA STRAZI?

Solo:

   Dm
E--8----------------------------------s10~-|
H-----6-5---5^6^5------6-8-8/\-6-8-6-6-----|
G---------7-------7--7---------------------|
D------------------------------------------|
A------------------------------------------|
E------------------------------------------|

  Am
                                    {-------------------alternate--------------------|
E------------------------------------------------------------------------------------|
H----------------------------------10-8^10^8--8--------------------------------------|
G-5-4---4---4------------5----7s9-----------9---9-7^9^7----7-------------------------|
D-----7---7---5------5-----7----------------------------10--10-7^10^7----7-------7---|
A----------------5-7---7----------------------------------------------10--10-7^10----|
E------------------------------------------------------------------------------------|

   Dm
E-------------s12/12-12/12-12-12/12-12-s15~~--|
H----------10---------------------------------|
G-----9-10------------------------------------|
D--12-----------------------------------------|
A---------------------------------------------|
E---------------------------------------------|
   Am
   T       T       T       T       T       T       T       T
E-------------------------------------------------------------------|
H--12^10^8-13^10^8-12^10^8-13^10^8-12^10^8-13^10^8-12^10^8-13^10^8--|
G-------------------------------------------------------------------|
D-------------------------------------------------------------------|
A-------------------------------------------------------------------|
E-------------------------------------------------------------------|

   Am
   T       T       T       T       T       T       T       T
E-------------------------------------------------------------------|
H--12^10^8-13^10^8-12^10^8-13^10^8-12^10^8-13^10^8-12^10^8-13^10^8--|
G-------------------------------------------------------------------|
D-------------------------------------------------------------------|
A-------------------------------------------------------------------|
E-------------------------------------------------------------------|

   Dm
E-------------------------------s17-s20-s-22~~--|
H------------------------12-13------------------|
G---------------------10------------------------|
D--x-12-x-10-x-9-x-10---------------------------|
A-----------------------------------------------|
E-----------------------------------------------|

   Am
E--22/-22-20-22-20-19^20^19-17^19^17-|
H------------------------------------|
G------------------------------------|
D------------------------------------|
A------------------------------------|
E------------------------------------|

 {--------------------------------alternate-------------------------------------|
E----17-------------------------------------------------------------------------|
H--20--20^17^20--17-------------------------------------------------------------|
G--------------19--19-17^19^17--17----------------------------------------------|
D-----------------------------19--19-19^17^19-17--17----------------------------|
A-----------------------------------------------19--19-17^19^17--17-------------|
E--------------------------------------------------------------20--20-17-20s----|

   Dm
E-------20-----20-----20-----20-----20-----20-----20-20-20s22~-|
H--17-18--17-18--17-18--17-18--17^18--17^18--17^18-------------|
G--------------------------------------------------------------|
D--------------------------------------------------------------|
A--------------------------------------------------------------|
E--------------------------------------------------------------|

   E
  {--------------------------alternate--------------------------|
E---------------------------------------------------------------|
H---------------------------------------------------------------|
G---------------------------------------------------------------|
D-------------------------------------------------9--9-11-9-11--|
A----9-11-12^11^9---9-11-12^11^9----9-11-12--11-12-12-----------|
E--12-------------12-------------12-----------------------------|

 -----------------------alternate----------------------------------------|
E--------------12-9------------------------------------------------------|
H----------9-12----12-10-9^10--9-----------------------------------------|
G--9-8-9-11---------------------11-11-9^11^9--9--------------------------|
D-------------------------------------------11-11-9^11^9---9-------------|
A-------------------------------------------------------12--12-11-9------|
E------------------------------------------------------------------12s---|
Suggest correction
Give kudos to tab author, rate the tab!
1 2 3 4 5
comments
print report bad tab
1 comment total.
0 reply
TheNameOfNoone 346 Jan 22, 2013 12:53 PM

Vrlo dobro.

guest
You may want to rate the tab now too:
select rating
Wanna post a correction for this tab? Suggest correction