Oops, an error
Loading. Please wait.

Baila Conmigo tab

43 views 1 this week
no commentswrite comment
1 2 3 4 5
3 more votes to show rating
add to favorites
×
Save as Personal and add changes to this tab that will be seen only by you. Learn more ›
×
You can save this tab as Personal to edit and correct it or add notes. All changes will be seen only by you. Learn more »
launch autoscroll
font size
0
reset
how to read this tab
guitar tuner
edit
Autoscroll
slow
fast
+/-
esc
set tempo
stop
*Intro:

-Sax:

1. -----------------------|---------------------|-------------|---------|
2. -------4-2-----------4-|-4-4-4-2-2-4-2-------|-2---4-2-----|-2---2-2-|
3. -----4-----4---4---4---|---------------4-4-4-|---4-----4-4-|---4-----|
4. -4-6---------6---6-----|---------------------|-------------|---------|
5. -----------------------|---------------------|-------------|---------|
6. -----------------------|---------------------|-------------|---------|

-Guitarra:

(riff)
     B                  F#                 E
1. -------------------|------------------|-----------------|
2. -------------------|-----2-2-5-5-4-2--|-----0-0-3-3-2-0-|
3. *---------2-2-1---*|*----------------*|-----------------|
4. *-----4-4-------4-*|*-4-4------------*|-2-2-------------|
5. --2-2--------------|------------------|-----------------|
6. -------------------|------------------|-----------------|
   <-------X2--------> <-------X2------->

    C#7               F#
1. -----------------|-----------------|
2. -----------------|-----2-2-5-5-4-2-|
3. -----------------|-----------------|
4. -----2-2-5-5-4-2-|-4-4-------------|
5. -----------------|-----------------|
6. -4-4-------------|-----------------|


*Verso:


                        B(riff)
Yo bailo al son que me toca la vida,
                    F#
soy medio loco y suicida,
              E                   C#7
guitarra al hombro y me lanzo al vacío
         F#
sin paracaídas.

                       B(riff)
Tú bailas algo fino y tan distinto,
                    F#
así quizo ser tu instinto,
          E         C#7
yo canto bajo un farol,
                  F#
tú en un bello recinto.

        E
Pero decía el abuelo
        F#
que de dos diferencias
        E
pueden irse formando
         F#
dos grandes coincidencias.


*Coro:


          B
Baila conmigo,
1. -----------------------------------9/11-|
2. ---------------12-12------12-12-12------|
3. ----------/10b-------/10b---------------|
4. ----------------------------------------|
5. ----------------------------------------|
6. ----------------------------------------|
                  F#
tan sólo baila conmigo,
1. -------------------------------|
2. ----------------9br~-7---------|
3. -----------------------9-8-6---|
4. -----------------------------4-|
5. -------------------------------|
6. -------------------------------|
         E
corazón con corazón,
1. ---------------------|
2. ---------0-0-3-3-2-0-|
3. ---------------------|
4. -----2-2-------------|
5. ---------------------|
6. ---------------------|
         C#7
que nos sobra pulmón,
1. ----------------------|
2. ----------------------|
3. ----------------------|
4. ----------2-2-5-5-4-2-|
5. ----------------------|
6. ------4-4-------------|
      F#
para toda la vida.
1. -------------------|
2. -------2-2-5-5-4-2-|
3. -------------------|
4. ---4-4-------------|
5. -------------------|
6. -------------------|


          B
Baila conmigo,
1. --------10br-10br-10-10br-|
2. --------------------------|
3. --------------------------|
4. --------------------------|
5. --------------------------|
6. --------------------------|
                  F#

tan sólo baila conmigo,
1. ---------------------------14-----------------|
2. ------------------------------16-14-14b-14-14-|
3. -------------------13/14-15-------------------|
4. ----------------------------------------------|
5. ----------------------------------------------|
6. ----------------------------------------------|
           E
que no es la situación,
1. -----------------------|
2. -----------0-0-3-3-2-0-|
3. -----------------------|
4. -------2-2-------------|
5. -----------------------|
6. -----------------------|
     C#7
sino el corazón,
1. ------------------|
2. ------------------|
3. ------------------|
4. ------2-2-5-5-4-2-|
5. ------------------|
6. --4-4-------------|
       F#
quien decide el camino.
1. -------------------|
2. -------2-2-5-5-4-2-|
3. -------------------|
4. ---4-4-------------|
5. -------------------|
6. -------------------|

-Sax:

1. -----------------------|---------|-------------------------|---------|
2. -------4-2-----------4-|-4-4-4-2-|-2-4-2-------2---4-2-----|-2---2-2-|
3. -----4-----4---4---4---|---------|-------4-4-4---4-----4-4-|---4-----|
4. -4-6---------6---6-----|---------|-------------------------|---------|
5. -----------------------|---------|-------------------------|---------|
6. -----------------------|---------|-------------------------|---------|


*Verso:

                  B(riff)
Tú delicada como porcelana,
                   F#
con encajes en tu cama,
         E               C#7
mi más grande rutina es hacer
                 F#
lo que me da la gana.

                      B(riff)
Para mí sigue siendo lo primero
                  F#
ser un perro callejero,
         E                C#7
pegarle duro a la Fender, ooh,
                F#
hasta abrir agujeros.

        E
Pero decía el abuelo
        F#
que de dos diferencias
        E
pueden irse formando
         F#
dos grandes coincidencias.


*Coro:


          B
Baila conmigo,
1. ----------/10-10-9--------|
2. -------------------/12-12-|
3. --------------------------|
4. --------------------------|
5. --------------------------|
6. --------------------------|
                  F#
tan sólo baila conmigo,
1. --------------------------------------|
2. ----------------10b-10b-10-8-6-8/10-8-|
3. --------------------------------------|
4. --------------------------------------|
5. --------------------------------------|
6. --------------------------------------|
         E
corazón con corazón,
1. ----------------------|
2. ----------0-0-3-3-2-0-|
3. ----------------------|
4. ------2-2-------------|
5. ----------------------|
6. ----------------------|
         C#7
que nos sobra pulmón,
1. ----------------------|
2. ----------------------|
3. ----------------------|
4. ----------2-2-5-5-4-2-|
5. ----------------------|
6. ------4-4-------------|
      F#
para toda la vida.
1. -------------------|
2. -------2-2-5-5-4-2-|
3. -------------------|
4. ---4-4-------------|
5. -------------------|
6. -------------------|


          B
Baila conmigo,
1. ----------/10-10----/10-10----|
2. -----------------12--------12-|
3. ------------------------------|
4. ------------------------------|
5. ------------------------------|
6. ------------------------------|
                  F#
tan sólo baila conmigo,
1. -----------------------------------|
2. ---------------------9------9------|
3. -----------------------------------|
4. ----------------10br---10br--------|
5. ----------------------------12br-9-|
6. -----------------------------------|
           E
que no es la situación,
1. -----------------------|
2. -----------0-0-3-3-2-0-|
3. -----------------------|
4. -------2-2-------------|
5. -----------------------|
6. -----------------------|
     C#7
sino el corazón,
1. ------------------|
2. ------------------|
3. ------------------|
4. ------2-2-5-5-4-2-|
5. ------------------|
6. --4-4-------------|
       F#
quien decide el camino.
1. -------------------|
2. -------2-2-5-5-4-2-|
3. -------------------|
4. ---4-4-------------|
5. -------------------|
6. -------------------|

-Sax:

1. -----------------------|---------|-------------------------|---------|
2. -------4-2-----------4-|-4-4-4-2-|-2-4-2-------2---4-2-----|-2---2-2-|
3. -----4-----4---4---4---|---------|-------4-4-4---4-----4-4-|---4-----|
4. -4-6---------6---6-----|---------|-------------------------|---------|
5. -----------------------|---------|-------------------------|---------|
6. -----------------------|---------|-------------------------|---------|


          B
Baila conmigo,
1. ----------------------------|
2. --------/12-12-12-10-8------|
3. -----------------------9----|
4. -------------------------10-|
5. ----------------------------|
6. ----------------------------|
                  F#
tan sólo baila conmigo,
1. -------------------------------------|
2. --------------------7-----7----------|
3. ----------------------------/9-8-----|
4. ----------------9br---9br--------9-9-|
5. -------------------------------------|
6. -------------------------------------|
         E
corazón con corazón,
1. ----------------------|
2. ----------0-0-3-3-2-0-|
3. ----------------------|
4. ------2-2-------------|
5. ----------------------|
6. ----------------------|
         C#7
que nos sobra pulmón,
1. ----------------------|
2. ----------------------|
3. ----------------------|
4. ----------2-2-5-5-4-2-|
5. ----------------------|
6. ------4-4-------------|
      F#
para toda la vida.
1. -------------------|
2. -------2-2-5-5-4-2-|
3. -------------------|
4. ---4-4-------------|
5. -------------------|
6. -------------------|


*Outro:

-Sax:

1. -------------------|------------------------------------|
2. -------4-2---2-----|------------------------------------|
3. -----4-----4---4-4-|---------------11-13-11-13/15-13-11-|
4. -4-6---------------|-/11b-9-9--/13----------------------|
5. -------------------|------------------------------------|
6. -------------------|------------------------------------|

1. -------------------------------|-------------------14-|
2. -------14-14-14h15-14-12-14-12-|----------------------|
3. -13/15-------------------------|-13/15-13-11-13-11----|
4. -------------------------------|----------------------|
5. -------------------------------|----------------------|
6. -------------------------------|----------------------|
                                                       (Fade Out)

            
            
Suggest correction
Creating personal tab
Creating personal tab
You can edit any tab online and save it as your Personal.

You can edit, replace or remove any tab part or add personal notes – all changes will be seen only by you.

Personal tabs can be accessed anytime from any device, even offline.
Learn more »
Give kudos to tab author, rate the tab!
1 2 3 4 5
comments
print report bad tab
guest
Wanna post a correction for this tab? Suggest correction