Oops, an error
Loading. Please wait.

Libre tab

version 1
version 1

Whole song

25 views 1 this week
no commentswrite comment
1 2 3 4 5
3 more votes to show rating
add to favorites
×
Save as Personal and add changes to this tab that will be seen only by you. Learn more ›
×
You can save this tab as Personal to edit and correct it or add notes. All changes will be seen only by you. Learn more »
launch autoscroll
font size
0
reset
how to read this tab
guitar tuner
edit
Autoscroll
slow
fast
+/-
esc
set tempo
stop
Intro:
e|-9-11--9-13-13-11--9-11--9-11--9-13-13-11------
G|-----------------------------------------------
B|-----------------------------------------------
D|-----------------------------------------------
A|-----------------------------------------------
E|-----------------------------------------------

Pude haber sido ingeniero filósofo, químico 
e|-9-11--9-13-13-11--9-11------------------------
G|-----------------------------------------------
B|-----------------------------------------------
D|-----------------------------------------------
A|-----------------------------------------------
E|-----------------------------------------------

 pero hubiera incidido en mi esta anímico
e|-9-11--9-13-13-11--9-11------------------------
G|-----------------------------------------------
B|-----------------------------------------------
D|-----------------------------------------------
A|-----------------------------------------------
E|-----------------------------------------------

Powerchords
F 
Pude haber sido astronuata 
               Am 
contador o físico 
F 
pude haber sido banquero 
                  G 
arquitecto o doctor 
 
Intro:
e|-9-11--9-13-13-11--9-11--9-11--9-13-13-11------
G|-----------------------------------------------
B|-----------------------------------------------
D|-----------------------------------------------
A|-----------------------------------------------
E|-----------------------------------------------

Pude haber sido maestro cura o burócrata 
e|-9-11--9-13-13-11--9-11------------------------
G|-----------------------------------------------
B|-----------------------------------------------
D|-----------------------------------------------
A|-----------------------------------------------
E|-----------------------------------------------

Pude haber sido mesero albañil o aristócrata
e|-9-11--9-13-13-11--9-11------------------------
G|-----------------------------------------------
B|-----------------------------------------------
D|-----------------------------------------------
A|-----------------------------------------------
E|-----------------------------------------------
 Powerchords
F 
Pude haber sido de todo 
                  Am 
incluso sin quererlo 
F 
pero si no amo lo que hago 
                     G 
no veo por que hacerlo 

Coro:
e|-14-13--14-14-13-11--9-9-----------------------
G|-------------------------11-11-----------------
B|-----------------------------------------------
D|-----------------------------------------------
A|-----------------------------------------------
E|-----------------------------------------------

e|14-13--14-14-13-11--9--13--9--11---------------
G|-----------------------------------------------
B|-----------------------------------------------
D|-----------------------------------------------
A|-----------------------------------------------
E|-----------------------------------------------                     

C 
Por eso es que soy libre 
                       F 
libre sin ponerme máscaras 
C                               G 
libre, libre sin usar ningún disfraz 
C 
Por eso es que soy libre 
                      F 
libre sin ponerme máscaras 
C                               G 
libre, libre sin usar ningún disfraz 

Intro:(x2)
e|-9-11--9-13-13-11--9-11--9-11--9-13-13-11------
G|-----------------------------------------------
B|-----------------------------------------------
D|-----------------------------------------------
A|-----------------------------------------------
E|-----------------------------------------------

Me compré una guitarra y empecé a hacer canciones 
e|14-13--14-14-13-11--9--13--9--11---------------
G|-----------------------------------------------
B|-----------------------------------------------
D|-----------------------------------------------
A|-----------------------------------------------
E|-----------------------------------------------

y hasta hoy es lo único que me da emociones
e|14-13--14-14-13-11--9--13--9--11---------------
G|-----------------------------------------------
B|-----------------------------------------------
D|-----------------------------------------------
A|-----------------------------------------------
E|-----------------------------------------------
 
F 
Soló haciendo lo que amas 
Am 
pasarás por el mundo 
F 
provocando que muchos 
G 
sigan tu mismo rumbo 

Coro:
e|-14-13--14-14-13-11--9-9-----------------------
G|-------------------------11-11-----------------
B|-----------------------------------------------
D|-----------------------------------------------
A|-----------------------------------------------
E|-----------------------------------------------

e|14-13--14-14-13-11--9--13--9--11---------------
G|-----------------------------------------------
B|-----------------------------------------------
D|-----------------------------------------------
A|-----------------------------------------------
E|-----------------------------------------------  
                    C 
Por eso es que soy libre 
F 
libre sin ponerme máscaras 
C                               G  
libre, libre sin usar ningún disfraz 
C 
Por eso es que soy libre 
F
 libre sin ponerme máscaras 
C                              G 
libre, libre sin usar ningún disfraz
 
e|-14-13--14-14-13-11--9-9-----------------------
G|-------------------------11-11-----------------
B|-----------------------------------------------
D|-----------------------------------------------
A|-----------------------------------------------
E|-----------------------------------------------

e|14-13--14-14-13-11--9--13--9--11---------------
G|-----------------------------------------------
B|-----------------------------------------------
D|-----------------------------------------------
A|-----------------------------------------------
E|-----------------------------------------------  
                    C 
Por eso es que soy libre 
F 
libre sin ponerme máscaras 
C                               G  
libre, libre sin usar ningún disfraz 
C 
Por eso es que soy libre 
F
 libre sin ponerme máscaras 
C                              G 
libre, libre sin usar ningún disfraz
Suggest correction
Creating personal tab
Creating personal tab
You can edit any tab online and save it as your Personal.

You can edit, replace or remove any tab part or add personal notes – all changes will be seen only by you.

Personal tabs can be accessed anytime from any device, even offline.
Learn more »
Give kudos to tab author, rate the tab!
1 2 3 4 5
comments
print report bad tab
guest
Wanna post a correction for this tab? Suggest correction