Oops, an error
Loading. Please wait.

Me Dejaste tab

version 2
version 2

Whole song

22 views 1 this week
no commentswrite comment
1 2 3 4 5
3 more votes to show rating
add to favorites
×
Save as Personal and add changes to this tab that will be seen only by you. Learn more ›
×
You can save this tab as Personal to edit and correct it or add notes. All changes will be seen only by you. Learn more »
launch autoscroll
font size
0
reset
how to read this tab
guitar tuner
edit
Autoscroll
slow
fast
+/-
esc
set tempo
stop
AKI ESTA ESTA ROLA DE ARJONA, QUE PARA MI ESTA BIEN HECHA, LA SAQUE
DE OIDO, PUEDE TENER ERRORES`PERO SON MINIMOS, ASI KE ESCUCHENLA
BIEN PARA KE LE PUEDAN ENTENDER, Y SI NO LE ENTIENDEN PUES  DE 
PLANO MEJOR NI LA INTENTEN SACAR, POR QUE DE VERDAD QUE SE LAS PUSE
LO MAS FACIL KE PUDE,  ARRIBA LES PUSE LA LETRA Y ABAJO EL ACORDE
PARA QUE SE VAYAN GUIANDO:


Primero entra el piano, despues entra la guitarra ( ese solo lo
puden sacar de una version ke ya estaba en el atame, ke me parece
ke esta bien ) y entonces hay otra guitarra ke hace esto mientras
la otra toca el intro:

    G           D             Em             D
6|-3--------------------------0-----------------------------------
5|------------------------------2---------------------------------
4|---------------0----------------2----------0--------------------
3|----0-------0----2-------2--------------0----2-------2----------
2|------3---3--------3---3--------------0--------3---3------------
1|--------3------------2--------------0------------2--------------
   C             D           Dsus4      D
6|----------------------------------------------------------------
5|-3-------------------------------------0------------------------
4|---2-----------0-----------0-------------0----------------------
3|-----0------0----2-------2---2-------2-----2---------2-0--------
2|----------1--------3---3-------3---3---------3-----3------------
1|--------0------------2-----------2-------------3-2--------------


 Y aki empieza el verso:


 me dejaste un beso en la gabeta y un brassiere tirado en el sofa
6|-3---------------------0-----------------------------------------
5|-------------------------2-------------------3-------------------
4|----------0----------------2--------0----------2-----------------
3|----0-------2-------2-------------0---2----2-----0-----0---------
2|------3-3-----3---3-------------0-------3----------1-1-----------
1|------3---------2-------------0---------2----------0-------------
    (G)         (D)        (Em)        (D)      (C)   


   un ataque de celos en la mesa y tu perfume...
6|--------------------------3--------------------------------------
5|-2-----------0---------------------------------------------------
4|---0-----------2-------------------------------------------------
3|-----0-----0-----2-----2-----2---2-------------------------------
2|---------1-----------1---------1---------------------------------
1|-------0-----------0-----------0---------------------------------
    (Em+5)      (Am)         (Am/G)

   pegado en la pared.
6|-2----------------------------------------
5|----------3---------2---------------------  esta parte 
4|------------------------------------------   se toca
3|----2--------2---------2---------2-0------     muy
2|------3--------3---------3-----3----------   rapido ok?
1|--------3--------2---------3-2------------
    (Dsus4/F#) (D/C)   (D/B)

 me dejaste el mundo de cabeza y un grito en el contestador
6|-3---------------------0--------------------------------------------
5|-------------------------2-------------------3----------------------
4|----------0----------------2--------0----------2--------------------
3|----0-------2-------2-------------0---2----2-----0-----0------------
2|------3-3-----3---3-------------0-------3----------1-1--------------
1|------3---------2-------------0---------2----------0----------------
    (G)         (D)        (Em)        (D)      (C)


   que anunciaba con toda certeza que esta vez...
6|--------------------------3-----------------------------------------
5|-2-----------0------------------------------------------------------
4|---0-----------2----------------------------------------------------
3|-----0-----0-----2-----2-----2---2----------------------------------
2|---------1-----------1---------1------------------------------------
1|-------0-----------0-----------0------------------------------------
     (Em+5)      (Am)         (Am/G)


   se te acabo el amor.
6|-2----------------------------------------
5|----------3---------2---------------------  esta parte 
4|------------------------------------------   se toca
3|----2--------2---------2---------2-0------  igual de rapido
2|------3--------3---------3-----3----------  ke LA primera
1|--------3--------2---------3-2------------
    (Dsus4/F#) (D/C)   (D/B)

 me dejaste un pero y un por que, unos cuantos insultos y un adios
6|-3---------------------0--------------------------------------------
5|-------------------------2-------------------3----------------------
4|----------0----------------2--------0----------2--------------------
3|----0-------2-------2-------------0---2----2-----0-----0------------
2|------3-3-----3---3-------------0-------3----------1-1--------------
1|------3---------2-------------0---------2----------0----------------
     (G)         (D)        (Em)        (D)      (C)   


   una duda flotando en mi cabeza y la promesa...
6|--------------------------3------------------------------------------
5|-2-----------0-------------------------------------------------------
4|---0-----------2-----------------------------------------------------
3|-----0-----0-----2-----2-----2---2-----------------------------------
2|---------1-----------1---------1-------------------------------------
1|-------0-----------0-----------0-------------------------------------
     (Em+5)      (Am)         (Am/G)


   de no volver jamas.
6|-2-------------------------------------------------------------------
5|----------3---------2------------------------------------------------  
4|---------------------------------------------------------------------   
3|----2--------2---------2---------2-0---------------------------------     
2|------3--------3---------3-----3-------------------------------------   
1|--------3--------2---------3-2---------------------------------------
    (Dsus4/F#) (D/C)   (D/B)


   lo que siento lo guardo en la nevera, por si un dia decides regresar.
6|--------------------0-------------------------------------------------
5|-2--------------------2--------------3-------------0------------------ 
4|------------------------2----------------------------0----------------   
3|----2---2----2---2--------------0-------0---0----------2--------------     
2|------0---0----0--------------0---0-------3---3----------3------------   
1|----------2-----------------0-------------------0----------2----------
    (B7)                (Em)            (C9)          (D)


D9 D  G                  D                      C       G
 Que hago con este cementerio de sueños y con toda mi mitad
      D               C                    G 
 con esta deuda de afectos y con tanta libertad
                       D           C          G
 Que hago con este insomnio y mi falta de apetito
   D                 C                                 G
 donde meto los reproches y tu foto si la pongo o la quito.


AKI LE SIGUEN LOS MISMOS ACORDE QUE EN EL INTRO.
  ( G,  D,   Em,  D,  C,  D.  Dsus4,  D  )

  
LOS MISMOS ACORDES CON LA MISMA TABLATURA LA PUEDEN TOCAR 
EN LOS SIGUIENTES VERSOS...

 G               D            Em   
 Me vendiste un sueño al dos por uno
              D          C
 y me dejaste solo realidad
          Em+5         Am
 una casa minada de recuerdos
     Am/G
 y el dentifrico
   Dsus4/F#  D/C  D/B  D
 aplastado a la mitad.

  G               D        Em   
 Me dejaste el tiempo que perdi
             D          C
 te llevaste mi despertador
           Em+5         Am
 te llevaste la ropa interior
           Am/G         Dsus4/F#  D/C  D/B  D
 que te di para quitartela

  B7                             Em
 Lo que siento sera cuestion de tiempo
  C9            D
 para ver si se queda
       G
 o se va
 
 Que hago con este cementerio......... ( dos veces)


BUENO, ASI ESTA ESTA ROLA, NETA KE ESTA BIEN CHIDA,  SI ALGUIEN KIERE HACER UN COMENTARIO 
ACERCA DE LA MISMA, PUES DEJENME DECIRLES KE MEJOR SE
QUEDEN CALLADOS OK???, NO ES CIERTO, SUS KEJAS, DUDAS, COMENTARIOS
INVITACIONES A CENAR, ETC, SERAN BIEN VENIDOS...
SALUDOS A POZA RICA VERACRUZ, A LA BANDA DE ING. CIVIL DEL 
301-C, Y SOBRE TODO A UNA LINDA QUIMICA, QUE ES LA QUE ME
HA ROBADO EL CORAZON, SE LLAMA SARAHI HERNANDEZ ALVAREZ, 
ES LA NIÑA MAS LINDA DE TODO EL MUNDO, Y LA VERDAD LA AMO UN CHIN..
Y NO LA HE PODIDO OLVIDAR, Y POE ESO ME DECIDI A TRANSCRIBIR ESTA CANCION
, PARA ELLA CON TODO MI AMOR, SI ALGUIEN LA CONOCE PUES HAGASELO
SABER OK????????????????
BUENO, SE CUIDAN, Y RECUERDEN QUE LA MUSICA ES CULTURA...

            
            
Suggest correction
Creating personal tab
Creating personal tab
You can edit any tab online and save it as your Personal.

You can edit, replace or remove any tab part or add personal notes – all changes will be seen only by you.

Personal tabs can be accessed anytime from any device, even offline.
Learn more »
Give kudos to tab author, rate the tab!
1 2 3 4 5
comments
print report bad tab
guest
Wanna post a correction for this tab? Suggest correction