Oops, an error
Loading. Please wait.

Mujer De Guanahani tab

13 views 1 this week
no commentswrite comment
1 2 3 4 5
3 more votes to show rating
add to favorites
×
Save as Personal and add changes to this tab that will be seen only by you. Learn more ›
×
You can save this tab as Personal to edit and correct it or add notes. All changes will be seen only by you. Learn more »
launch autoscroll
font size
0
reset
how to read this tab
guitar tuner
edit
Autoscroll
slow
fast
+/-
esc
set tempo
stop
Ahh, a esta rola le puse sus arreglos de guitarra que casi no se
oyen, pues nada mas se oyen los bongos y trompetas, espero les
guste.


Intro:
                 Fahaeee... Falaloayieyiegoaye... Mahmasiaciyee...
1. -0-----------------------------------------------------------------
2. ---------------------------5\2-4\2-3\1-2/3-------------------------
3. ---****BONGOS****---------------------------------TROMPETAS--------
4. -------------------------------------------------------------------
5. -------------------------------------------------------------------
6. -------------------------------------------------------------------

* C F C F C

Tiempos de colonizacion, sometimiento y fusion, de independencias y muerte
1. ---0-0-0-1-1---0----------0-0-0-1-1---0-----------------3-------------
2. -------------3----------------------3-------------1-1-1---1-1-0-------
3. ----------------------------------------------------------------2-----
4. ----------------------------------------------------------------------
5. ----------------------------------------------------------------------
6. ----------------------------------------------------------------------

* F C F Am G F G

se dibujan sobre tu piel, mujer de guanahani, recompensando al destino, ahyoo.
1. ---0-0-0-1-1---0----------0-0-0-1-1---0-----------------3-------------
2. -------------3----------------------3-------------1-1-1---1-1-0-------
3. ----------------------------------------------------------------2-----
4. ----------------------------------------------------------------------
5. ----------------------------------------------------------------------
6. ----------------------------------------------------------------------

* Am D Am D Am

Y es que tienes el cuerpo de un sueño, de la historia que duerme en tu vientre,
1. --------0-----------------------------------0----------------------
2. -----------1/3-0---1---------------------------1/3-0---1-----------
3. ----2-2----------2---2------------------2-2----------2---2---------
4. -------------------------------------------------------------------
5. -------------------------------------------------------------------
6. -------------------------------------------------------------------

* G C D G C

hija de este mar, de la esclavitud, de un conquistador, de un indio taino y del tiempo.
1. -----0-0-3----------0-0-3-----------0-0-0-1-0--------0-0-0-1-3-1-0-1-0---
2. -1-1------------1-1------------------------------------------------------
3. -------------------------------------------------------------------------
4. -------------------------------------------------------------------------
5. -------------------------------------------------------------------------
6. -------------------------------------------------------------------------

* F Em Am D F Em Dm G

Eres un invento del mar, que no te deja pensar, que mata con la mirada, oh noo.
1. ---0-0-0-1-1---0----------0-0-0-1-1---0-----------------3-------------
2. -------------3----------------------3-------------1-1-1---1-1-0-------
3. ----------------------------------------------------------------2-----
4. ----------------------------------------------------------------------
5. ----------------------------------------------------------------------
6. ----------------------------------------------------------------------

* Am D Am D Am

Si el pasado es incierto en tu historia, no se tapa el sol con un dedo,
1. --------0-----------------------------------0----------------------
2. -----------1/3-0---1---------------------------1/3-0---1-----------
3. ----2-2----------2---2------------------2-2----------2---2---------
4. -------------------------------------------------------------------
5. -------------------------------------------------------------------
6. -------------------------------------------------------------------

* G C D G

princesa de cobre, alga y corazon, de guanahani, llega mi pregon, y dice:
1. -----0-0-3-0---------0-0-3--------0-0-0-1-0-----0-0-1-1-3------0-1-0---
2. -1-1-------------1-1---------------------------------------------------
3. -----------------------------------------------------------------------
4. -----------------------------------------------------------------------
5. -----------------------------------------------------------------------
6. -----------------------------------------------------------------------

 G             F            C      D 
Negro, negro, raza virgen, guanahani,
 G                     F       C        D
baila tu cuerpo y se contonea, ay para mi,
 G             F            C      D 
Negro, negro, raza virgen, guanahani,
 G                     F       C        D
baila tu cuerpo y se contonea, ay para mi.



            
            
Suggest correction
Creating personal tab
Creating personal tab
You can edit any tab online and save it as your Personal.

You can edit, replace or remove any tab part or add personal notes – all changes will be seen only by you.

Personal tabs can be accessed anytime from any device, even offline.
Learn more »
Give kudos to tab author, rate the tab!
1 2 3 4 5
comments
print report bad tab
guest
Wanna post a correction for this tab? Suggest correction