Oops, an error
Loading. Please wait.

Se Fue tab

25 views 1 this week
no commentswrite comment
1 2 3 4 5
3 more votes to show rating
add to favorites
×
Save as Personal and add changes to this tab that will be seen only by you. Learn more ›
×
You can save this tab as Personal to edit and correct it or add notes. All changes will be seen only by you. Learn more »
launch autoscroll
font size
0
reset
how to read this tab
guitar tuner
edit
Autoscroll
slow
fast
+/-
esc
set tempo
stop
Una de mis favoritas de su nuevo CD, Santo Pecado, aqui esta:

INTRO:
1. -------------------3----3-5------------------3---3-5------3---0-3-------
2. --0-3---3------0-3--3-3-----3-3-0-3---3----0---3------3-0---3------5----
3. ------7---7-3-----------------------7---7-------------------------------
4. ------------------------------------------------------------------------
5. ------------------------------------------------------------------------
6. ------------------------------------------------------------------------

G            D                       C     G           D                  C
Sin la griteria que antedece a un fiasco, sin el protocolo de un buen bofeton,
1. -------------------3----3-5------------------3---3-5------3---0-3----3-5---
2. --0-3---3------0-3--3-3-----3-3-0-3---3----0---3------3-0---3------5-----5-
3. ------7---7-3-----------------------7---7----------------------------------
4. ---------------------------------------------------------------------------
5. ---------------------------------------------------------------------------
6. ---------------------------------------------------------------------------

G           D                   C      G           D                  C                    G
Sin el argumento de un pecado ilustre, o el presentimiento de una anomalia que amerita el caso.
1. -------------------3----3-5------------------3---3-5------3---0-3----3-5-------3---3-5---3-3--
2. --0-3---3------0-3--3-3-----3-3-0-3---3----0---3------3-0---3------5-----5-0-3---3-----5------
3. ------7---7-3-----------------------7---7-----------------------------------------------------
4. ----------------------------------------------------------------------------------------------
5. ----------------------------------------------------------------------------------------------
6. ----------------------------------------------------------------------------------------------

CORO:
             C                  G
Sin decirme nada, sin decir porque,
          C                    G
sin una coartada o una explicacion,              
            C                  G         1. --------2--2------0-----
sin una mentira escrita en un papel,     2. ------3----------1----- 
              D                  C       3. ----2------2------0-----
sin las cursilerias tipicas del caso,    4. -0------------0---0-----
             G                 D         5. ------------------2-----
sin decirme nada sin decir porque,G                  D                 C     G                D                    C
Y yo pensando en ella como si fuera unica, aferrado a su ausencia como si fuese solida,
G                D                   C      G               D               C    G  
pidiendole a la vida que quizas la quimica, la devuelva buscando algun beso magico.        

             C                  G  
Sin decirme nada, sin decir porque,
          C                    G
sin una coartada o una explicacion,              
            C                  G         1. --------2--2------0-----
sin una mentira escrita en un papel,     2. ------3----------1----- 
              D                  C       3. ----2------2------0-----
sin las cursilerias tipicas del caso,    4. -0------------0---0-----
             G                 D         5. ------------------2-----
sin decirme nada sin decir porque,G         D                    C       G        D                  C
Sin la antologia de reproches basicos, sin el ejercio de memorias turbias,
1. -------------------3----3-5------------------3---3-5------3---0-3----3-5---
2. --0-3---3------0-3--3-3-----3-3-0-3---3----0---3------3-0---3------5-----5-
3. ------7---7-3-----------------------7---7----------------------------------
4. ---------------------------------------------------------------------------
5. ---------------------------------------------------------------------------
6. ---------------------------------------------------------------------------

G           D                 C      G         D                C                             G   
sin algun ataque de mamitis cronica, o el antecedente de un chisme siniestro que lo explique todo.
1. -------------------3----3-5------------------3---3-5------3---0-3----3-5-------3---3-5---3-3--
2. --0-3---3------0-3--3-3-----3-3-0-3---3----0---3------3-0---3------5-----5-0-3---3-----5------
3. ------7---7-3-----------------------7---7-----------------------------------------------------
4. ----------------------------------------------------------------------------------------------
5. ----------------------------------------------------------------------------------------------
6. ----------------------------------------------------------------------------------------------

             C                  G  
Sin decirme nada, sin decir porque,
          C                    G
sin una coartada o una explicacion,              
            C                  G         1. --------2--2------0-----
sin una mentira escrita en un papel,     2. ------3----------1----- 
              D                  C       3. ----2------2------0-----
sin las cursilerias tipicas del caso,    4. -0------------0---0-----
             G                 D         5. ------------------2-----
sin decirme nada sin decir porque,G                  D                 C     G                D                    C
Y yo pensando en ella como si fuera unica, aferrado a su ausencia como si fuese solida,
G                D                   C      G               D               C    G  
pidiendole a la vida que quizas la quimica, la devuelva buscando algun beso magico.        

 
             C                  G  
Sin decirme nada, sin decir porque,
          C                    G
sin una coartada o una explicacion,              
            C                  G         1. --------2--2------0-----
sin una mentira escrita en un papel,     2. ------3----------1----- 
              D                  C       3. ----2------2------0-----
sin las cursilerias tipicas del caso,    4. -0------------0---0-----
             G                 D         5. ------------------2-----
sin decirme nada sin decir porque,

            
            
Suggest correction
Creating personal tab
Creating personal tab
You can edit any tab online and save it as your Personal.

You can edit, replace or remove any tab part or add personal notes – all changes will be seen only by you.

Personal tabs can be accessed anytime from any device, even offline.
Learn more »
Give kudos to tab author, rate the tab!
1 2 3 4 5
comments
print report bad tab
guest
Wanna post a correction for this tab? Suggest correction