Oops, an error
Loading. Please wait.

Respirando La Luna tab

20 views 1 this week
no commentswrite comment
1 2 3 4 5
3 more votes to show rating
add to favorites
×
Save as Personal and add changes to this tab that will be seen only by you. Learn more ›
×
You can save this tab as Personal to edit and correct it or add notes. All changes will be seen only by you. Learn more »
launch autoscroll
font size
0
reset
how to read this tab
guitar tuner
edit
Autoscroll
slow
fast
+/-
esc
set tempo
stop
ESTA MARAVILLOSA CANCIÓN ME LA PIDIÓ
MI PAPÁ Y A ÉL SE LA DEBO, PERO ESPECIALMENTE
LA DEDICO A LOS OJOS VERDES Y LA CHAVA MÁS LINDA
QUE OCUPA PARTE DE MIS PENSAMIENTOS: VA PARA TI
GUERENY, T.Q.M.
SALUDOS A PREPA 1 
 
INTRO

e---------------------------------------
b--5-6-7-7/9-9--7-7/8/7-6-----7/8-6-----
g-------------------------8-6-----------
D---------------------------------------
A---------------------------------------
E---------------------------------------

e---------------------------------------
b--4-6-5-5/6-6--5-5/6/5-4-----6/7-5-----
g-------------------------7-5-----------
D---------------------------------------
A---------------------------------------
E---------------------------------------

e---------------------------------------
b--5-6-7-7/9-9--7/8-6-------7/8-6-------
g---------------------8-7-5-------------
D---------------------------------------
A---------------------------------------
E---------------------------------------

e------------7-5-------------
b----7-5---5-----8-6-5-------
g--5-----8-------------7-(5)-
D----------------------------
A----------------------------
E----------------------------


Am                               E
Voy a llenarte amor, de azul la vida
Em                        D        Dm
Y me iré contigo hasta la laguna
        C#m       Bm
Habrá un aroma para cada beso
  F#m          E             Am           
Y mil caricias, suaves como espuma


                              E
Voy a colgarte amor una gran sonrisa
Em                             D       Dm
Por donde corre el rímel cuando lloras  uoooh
           C#m              Bm
Voy a llenarte amor con aire y selva
  F#m          E                A7
Y será laurel, lo que fue hiedra


CORO:
D                        F#m
Respiraré profundo la luna
      Bm                        A7
Para que el alma se me vuelva blanca
       D                      F#m
Para llenar de noche mi romance
      G              E7     A A7
Para rociar mi corazón de karma
D                         F#m
Respiraré muy hondo la luna
     Bm                         A7                   
Para soplarte, estrellas en el pelo
     D                         F#m
Para sentir el cielo en mi suspiro
     G             E7         A
Para dejar sin aire al mismo aire

INTRO

Am                           E
Y mojará la lluvia nuestro abrazo
  Em                        D    Dm
Y paseará en tu cara la llovizna  uooooh
        C#m            Bm
Quizá queramos esperar que aclare
  F#m          E                   A7
O hablar bajito, y respirar la luna.

CORO


e-(4-3)-5/6-5-3-2/3-1---------------------14-15--  
b---------------------4-2/3-1-------------15-----
G-----------------------------3-1/2-0------------
D-------------------------------------3----------
A------------------------------------------------
E------------------------------------------------


ES MI PRIMERA TRANSCRIPCIÓN O.K.,LES AGARADECERIA SUS
OBSERVACIONES A MI MAIL

            
            
Suggest correction
Creating personal tab
Creating personal tab
You can edit any tab online and save it as your Personal.

You can edit, replace or remove any tab part or add personal notes – all changes will be seen only by you.

Personal tabs can be accessed anytime from any device, even offline.
Learn more »
Give kudos to tab author, rate the tab!
1 2 3 4 5
comments
print report bad tab
guest
Wanna post a correction for this tab? Suggest correction