Oops, an error
Loading. Please wait.

I Call Your Name Tab

4,373 views 3 this week
no commentswrite comment
1 2 3 4 5
please rate
add to favorites
launch autoscroll
font size
0
reset
how to read this tab
guitar tuner
Autoscroll
slow
fast
+/-
esc
set tempo
stop
Help us to improve Ultimate-Guitar.com Take our survey!
×
/--- This is one powerful song I love singing while doing my devotion.---/
/--- May all of you be blessed by this song. Dedicated to the best    ---/
/--- inspiration in my life - God.                                    ---/
/--- ~ wilfred manahan                                                ---/

I CALL YOUR NAME
by Ricardo Sanchez/Free Chapel

INTRO:

moderate=76

   D              G               (4x)
E| ------------------------------|
b| ----------3-------------------|
g| ------6--------------6---4----|
d| 4-5-4----------4-5-4----------|
a| ------------------------------|
e| ------------------------------|


Verse 1:
D    G           D/F#   Bm
Holy, Lord God almighty
            Em            G
Ancient of Days, Giver of Faith
             A
Lord I need You
E| ------------------------|
b| ------------------------|
g| ---------------14-------|
d| ------------11------14--|
a| ------------------------|
e| ------------------------|

Verse 2:
    D      G                 D/F#    Bm
    Worthy,      Lord Your deserving
E| -----------------------------------------|
b| -----7------7-----------------7-------7--|
g| ---7------7-----------------7-------7----|
d| -7------5-----------------4-------9------|
a| -----------------------------------------|
e| -----------------------------------------|

         Em           G
Of all I am, I lay me down
E| --------------------------|
b| ----------8------------8--|
g| --------7------------7----|
d| ------7------------9------|
a| --------------------------|
e| --------------------------|

             A
Lord I need You
E| --------------5-----5------5--|
b| ------------5-----5------5----|
g| ----------6-----6------6------|
d| ------------------------------|
a| ------------------------------|
e| ------------------------------|


Chorus:
            D                G
I call Your name, Lord You reply,
               Bm                     A
You bring Your kingdom to stand by my side
         D/F#              G
Giver of Life, more than I need,
            Bm                            A
Father Your everything that's precious to me
         Em     F#m      G(pause)            D(do Intro CP/tab 2x)
There is no one like You Lord     in all the earth


Verse 1:
D             G                             D/F#        Bm
Holy,                            Lord God almighty
E| ------------------------------------------------------------------|
b| -15-15-15-14------------------------------------------------------|
g| -------------16--------------------------------------11--12/14-14-|
d| ----------------17h19p17-17-----------------12-12/14--------------|
a| ------------------------------------------------------------------|
e| ------------------------------------------------------------------|

            Em            G
Ancient of Days, Giver of Faith
E| ------------------------------|
b| -------------8-------------8--|
g| -----------7-------------7----|
d| ---------7-------------9------|
a| ------------------------------|
e| ------------------------------|

             A
Lord I need You
E| ------------------------|
b| ------------------------|
g| ---------------14-------|
d| ------------11------14--|
a| ------------------------|
e| ------------------------|


Repeat Verse 2


Chorus:
            D                G
I call Your name, Lord You reply,
               Bm                     A
You bring Your kingdom to stand by my side
         D/F#              G
Giver of Life, more than I need,
            Bm                            A
Father Your everything that's precious to me
         Em     F#m      G       A       D
There is no one like You Lord in all the earth...

            D                G
I call Your name, Lord You reply,
E| --------------------------------------|
b| -------------------3------------------|
g| ---------------6----------------6---4-|
d| ---------4-5-4------------4-5-4-------|
a| --------------------------------------|
e| --------------------------------------|

               Bm                     A
You bring Your kingdom to stand by my side
E| -----------------------------------------------|
b| ----------------------3------------------------|
g| ------------------6----------------------6---4-|
d| ------------4-5-4------------------4-5-4-------|
a| -----------------------------------------------|
e| -----------------------------------------------|

         D/F#              G
Giver of Life, more than I need,
E| ------------------------------------|
b| ----------------3-------------------|
g| ------------6-----------------6---4-|
d| ------4-5-4-------------4-5-4-------|
a| ------------------------------------|
e| ------------------------------------|

            Bm                            A
Father Your everything that's precious to me
E| ---------------------------------------------------|
b| -------------------3-------------------------------|
g| ---------------6-----------------------------6---4-|
d| ---------4-5-4-------------------------4-5-4-------|
a| ---------------------------------------------------|
e| ---------------------------------------------------|

         Em     F#m      G       A       Em-F#-G-A
There is no one like You Lord in all the earth
         Em     F#m      G       A       Em-F#-G-A
There is no one like You Lord in all the earth
         Em     F#m      G       A       D(do Intro CP/tab 4x)
There is no one like You Lord in all the earth


Adlib:

   D              G
E| ------------------------------|
b| ----------3-------------------|
g| ------6--------------6---4----|
d| 4-5-4----------4-5-4----------|
a| ------------------------------|
e| ------------------------------|

   D              G
  Oh oohhhhhhhhh      All the
E| ------------------------------|
b| ----------3-------------------|
g| ------6--------------6---4----|
d| 4-5-4----------4-5-4----------|
a| ------------------------------|
e| ------------------------------|

   D              G
  earth. All the earth
E| ------------------------------|
b| ----------3-------------------|
g| ------6--------------6---4----|
d| 4-5-4----------4-5-4----------|
a| ------------------------------|
e| ------------------------------|

   D                          G
  No, no. There's no one like You, no one like You Lord
E| ------------------------------------------|
b| ----------3-------------------------------|
g| ------6--------------------------6---4----|
d| 4-5-4----------------------4-5-4----------|
a| ------------------------------------------|
e| ------------------------------------------|


Bridge:
    D
      There's none like You

E| -------------|
b| -----------3-|
g| -------6-----|
d| -4-5-4-------|
a| -------------|
e| -------------|

    G
      There's no one like You Lord
E| -------------|
b| -------------|
g| -------6---4-|
d| -4-5-4-------|
a| -------------|
e| -------------|

    D/F#                         G       (D)
      There's no one like You in all the earth
E| -----------------------------------------|
b| -----------3-----------------------------|
g| -------6---------------------------6---4-|
d| -4-5-4------------------------4-5-4------|
a| -----------------------------------------|
e| -----------------------------------------|


Repeat Bridge 8x (end in D)

         Em(pause)               A       D
There is no one like You Lord in all the earth

Do Intro Cp/Tab (optional ending)
Suggest correction
Give kudos to tab author, rate the tab!
1 2 3 4 5
comments
print report bad tab
guest
You may want to rate the tab now too:
select rating
Wanna post a correction for this tab? Suggest correction