Oops, an error
Loading. Please wait.

Betrayed Bass Tab

3,198 views 1 this week
no commentswrite comment
1 2 3 4 5
please rate
add to favorites
launch autoscroll
font size
0
reset
guitar tuner
Autoscroll
slow
fast
+/-
esc
set tempo
stop
Help us to improve Ultimate-Guitar.com Take our survey!
×
BAND: RICH KIDS ON L.S.D
SONG: BETRAYED
ALBUM: RICHES TO RAGS
TABBED BY : BEN MEYER benm@oakweb.com



INTRO SOLO:

G:-------------------------------------------------------------2-33-22-
D:-----------------------------3--------------1111--------3-5----------
A:----------------------3-3-5-----5-3-1-3-1-3------3-1-----------------
E:-(T)3-(T)3-(T)3-(T)3----------------------------------3--------------

CONTINUED:

G:--------------------------------------------------------------2-33-22-
D:-3-5---------1111--------5555-3-55555-3---------1111-----3-5----------
A:-----1-3-1-3------3-1-------------------1-3-1-3-----------------------
E:-----------------------3------------------------------3---------------

CONTINUED :

G:------------------------
D:-3-5----------1111------
A:-----1-3-1-3--------3-1-
E:------------------------

WOW!!

VERSE:

G:----------------------------------2-33-22-----------------------
D:-----------------1111---------3-5----------5-3---------1111-----
A:---------1-3-1-3------3-1----------------------1-3-1-3------3-1-
E:-3-3-3-3-------------------3------------------------------------

VERSE CONTINUED:

G:-----------------------------------------------------------------
D:----555555555----------1111----------------1-1-----------3-3-5-5-
A:--------------1-3-1-3-------3-1--1-1-1-1-------1-3-3-3-3---------
E:-3---------------------------------------------------------------


CHORUS:

G:---------------------------
D:---------------------------
A:-----------1-1-1-3-3-3-3-3-
E:-3-2-1-1-0-----------------

OUTRO TO CHORUS:(SOLO)

G:-----------------------------------------------------3-5-4-6-6-----
D:------------------5-5-3-3---------5-5-3-3----------5-----------4-6-
A:-3-3-3-3-5-5-5-5----------3-5-------------3-5----------------------
E:------------------------------3-5-------------3-5------------------

(I DON'T KNOW THE WHOLE THING YET ON THIS SOLO BUT I WILL HAVE IT SOON)

OUTRO SOLO:

G:-------------7-7---------8-8-------------------------------
D:---------5-7---------7-9------7-9-9------------------------
A:-----5-7---------7-9----------------9-7--------------------
E:-3-3-------------------------------------9-7-5-7-9-9-7-5-3-

LAST PART: > = LET IT RING OUT

G:-8-8-8-8-8-3>-8-8-8-8-8-8-5>-8-8-8-8-8-8-7>-------------
D:--------------------------------------------------------
A:---------------------------------------------7-5-3-1----
E:------------------------------------------------------3-

WOW THATS ALOT OF SOLOS. PLAY THIS SONG WITH A PICK AND
YOU MIGHT ACUALLY BE ABLE TO KEEP UP WITH THIS GUY
WHEH!!! - BEN
Suggest correction new What's this?
You can suggest a correction to this tab. Community and Mods will review your correction and vote to approve or reject it.
comments
We did not receive enough feedback on this tab! Please rate:
print report bad tab
1 2 3 4 5
guest
You may want to rate the tab now too:
select rating
Please do not post tabs as comments. Select "correction" instead!