Oops, an error
Loading. Please wait.

Jentends Siffler Le Train chords

version 2
version 2

Whole song

374 views 3 this week
no commentswrite comment
1 2 3 4 5
2 more votes to show rating
add to favorites
×
Save as Personal and add changes to this tab that will be seen only by you. Learn more ›
×
You can save this tab as Personal to edit and correct it or add notes. All changes will be seen only by you. Learn more »
launch autoscroll
font size
0
reset
transpose
0
reset
simplify chords
display chords
guitar tuner
edit
Autoscroll
slow
fast
+/-
esc
set tempo
stop
Author
Difficulty
Strumming
There is no strumming pattern for this song yet. and get +5 IQ
Richard Anthony - J'Entends Siffler Le Train

Tab par JeChe
Pour RoMi ! XD

Accords :
A : 002220
F#m7 : 242222
Bm : 224432
Bmadd9 : 75460X
E : 022100

Techniques :
s : slide
t : tremolo


Riff Intro
              A                 F#m7              Bm    Bmadd9
e||---------||:-----------------|-----------------|------------------------------------|
B||---------||:-2-----2-0-------|-2-----2-0-------|-0-------0---------------0----------|
G||-----2---||:-----2-----2---2-|-----2-------2---|-------6----------------------------|
D||-2-------||:---2---------2---|---2-------2---2-|-----4-------7---4-----4------4ss7--|
A||---------||:-0-------0-------|-----------------|---5-------5---5-----5-----5--5-----|
E||---------||:-----------------|-2-------2-------|-7-------7-------7-7----------------|

    Bm    Bmadd9      E                 A                  E                   A
e||-----------------|-----------------|------------------|-----------------:||-----------------...
B||-0-------0-------|-----------------|------------------|---------0-------:||-2-----2-0-------...
G||-------6---------|-------------2t--|-2-------2--------|-------1---1-----:||-----2-----2---2-...
D||-----4-------7---|-4s2---2s4-------|-------2---2------|-----2-------2---:||---2---------2---...
A||---5-------5---5-|-----2-----------|-----4-------4----|---2-----------2-:||-0-------0-------...
E||-7-------7-------|-0---------------|---5-----------5--|-0---------------:||-----------------...
                                                                   J'ai  pen - sé     qu'il valait...

Couplets + Refrains (à accompagner par le riff guitare en boucle !)


Couplet 1 :
A                       F#m7 
J'ai pensé qu'il valait mieux
         Bm    Bmadd9          
Nous quitter sans un adieu
       Bm   Bmadd9    E             A        E
Je n'aurai pas eu le coeur de te revoir


Refrain :
A                       F#m7 
Et j'entends siffler le train
       Bm    Bmadd9             
Et j'entends siffler le train
          Bm   Bmadd9         E              A         E
Que c'est triste un train qui siffle dans le soir...


Couplet 2 :
A                 F#m7 
Je pouvais t'imaginer,
      Bm            
Toute seule abandonnée
       Bm              E            A 
Sur le quai, dans la cohue des au-revoirs


Refrain


Couplet 3 :
A                       F#m7 
J'ai failli courir vers toi
         Bm              
j'ai failli crier vers toi
        Bm            E         A 
C'est à peine si j'ai pu me retenir !


Refrain bis :
A                         F#m7 
Que c'est loin où tu t'en vas
           Bm               
Que c'est loin où tu t'en vas
      Bm           E            A 
Auras-tu jamais le temps de revenir ?


Couplet 4 :
A                       F#m7 
J'ai pensé qu'il valait mieux
        Bm              
Nous quitter sans un adieu
        Bm             E               A 
Mais je sens que maintenant tout est fini!


Refrain ter :
A                       F#m7 
Et j'entends siffler le train
       Bm                 
Et j'entends siffler le train
       Bm              E              A 
J'entendrai siffler ce train toute ma vie.


            Bm               E              A 
Et moi, j'entends siffler ce train toute ma vie...
Suggest correction
Creating personal tab
Creating personal tab
You can edit any tab online and save it as your Personal.

You can edit, replace or remove any tab part or add personal notes – all changes will be seen only by you.

Personal tabs can be accessed anytime from any device, even offline.
Learn more »
Give kudos to tab author, rate the tab!
1 2 3 4 5
comments
print report bad tab
guest
You may want to rate the tab now too:
select rating
Wanna post a correction for this tab? Suggest correction