Oops, an error
Loading. Please wait.

Du Gamla Du Fria Bass

version 1
version 1

Whole song

Interactive

9,158 views 12 this week
1 commentread comment
1 2 3 4 5
x 4
add to favorites
launch autoscroll
font size
0
reset
guitar tuner
×
Best way to learn
"Du Gamla Du Fria"
Autoscroll
slow
fast
+/-
esc
set tempo
stop
Author
Difficulty
novice
Du gamla du fria, sveriges nationalsång (the national anthem of sweden)

G|---------------------------------------------------------------|
D|---------------------------------------------------------------|
A|-7-7--3-3-3--5-7-7--5-3-2--5-5--2-3-5-2-7-3-0--0-4-4--6-3-3----|
E|---------------------------------------------3-----------------|

G|---------------------------------------------------------------|
D|---------------------------------------------------------------|
A|-4-2-0-2-4-0---------------------------------------------------|
E|---------------------------------------------------------------|

G|---------------------------------------------------------------|
D|---------------------------------------------------------------|
A|-0-5-4-5-7-9-5-11-10-8-6---------------------------------------| x2
E|---------------------------------------------------------------|
Suggest correction
comments
print report bad tab
1 comment total.
0 reply
oglandberger 12 Jun 06, 2016 07:43 AM

fgh fgj hfj fh jgfj h jfhj vcj fjfghj fghk j jfjk kgjh kyjk gk jkgfg kgj kgj kj,gj gjk h gj hjk gj khcjtku

guest
You may want to rate the tab now too:
select rating
Wanna post a correction for this tab? Suggest correction