Oops, an error
Loading. Please wait.
We have Chord Pro version of Right Here Waiting.
It's the closest thing you can get to the original song and it has interactive parts. Check out the tab »
×
781 views 6 this week
no commentswrite comment
1 2 3 4 5
2 more votes to show rating
add to favorites
×
Save as Personal and add changes to this tab that will be seen only by you. Learn more ›
×
You can save this tab as Personal to edit and correct it or add notes. All changes will be seen only by you. Learn more »
launch autoscroll
font size
0
reset
guitar tuner
edit
Autoscroll
slow
fast
+/-
esc
set tempo
stop
Author
Difficulty
This is my first tab. It sounds almost perfect to me. The timing may be a little off, but just listen 
for timing and you will be good to go. Email any corrections to dennisleslie54@gmail.com. Enjoy!

Standard EADG Tuning


Intro (no bass until 0:27)
G|---------------------------------------------------------------|
D|---------------------------------------------------------------|
A|-3-------------------------------------------------------------|
E|----1-3---3-5---3-1--3---5-------------------------------------|

Verse 1 (0:44)
G|---------------------------------------------------------------|
D|---------------------------------------------------------------|
A|-3--------7-5----------5-3------------7-5---3-2----0-----------|
E|----0-1---------1-3------------0-1-----------------------------|

Pre-Chorus (1:05)
G|---------------------------------------------------------------|
D|---------------------------------------------------------------|
A|-5---3-2-0---7-5-----------------------------------------------|
E|-----------------3---------------------------------------------|

Chorus (1:16)
G|---------------------------------------------------------------|
D|--------------------------------------------------------5h7----|
A|-3-----------------------3-------------------------------------|
E|------1-3---3-5---3-1---3-----1-3---3-5---1-3-5----------------|

Verse 2 (1:43)
G|---------------------------------------------------------------|
D|---------------------------------------------------------------|
A|-3--------7-5----------5-3------------7-5---3-2-----0----------|
E|-----0-1---------1-3------------0-1----------------------------|

Pre-Chorus (2:05)
G|---------------------------------------------------------------|
D|---------------------------------------------------------------|
A|-7-5---3-2-0---7-5---------------------------------------------|
E|-------------------3-------------------------------------------|

Chorus (2:15)
G|---------------------------------------------------------------|
D|---------------------------------------------------------------|
A|-3---------------------3--------------------3------------------|
E|----1-3---3-5---3-1---3-----1-3---3-5---3-1--------------------|

Bridge (2:36)
G|---------------------------------------------------------------|
D|---------------------------------------------------------------|
A|-5-5---7---7-8---------3-5-5--5-7---7/8--8--8-8-10-10/12/14\---|
E|-----------------8/1--3-3--------------------------------------|
                                                  

Guitar Solo (2:58)
G|---------------------------------------------------------------|
D|---------------------------------------------------------------|
A|-3---------------------3---------------------------------------|
E|----1-3---3-5---3-1--3-----1-3---3-5---3-1---3--5--------------|

Pre-Chorus (3:21)
G|---------------------------------------------------------------|
D|---------------7-----------------------------------------------|
A|---5---3-2-0-----5-0-------------------------------------------|
E|-7-------------------------------------------------------------|

Chorus (3:30)
G|---------------------------------------------------------------|
D|---------------------------------------------------------------|
A|-3--------------------3-----------------------3----------------|
E|----1-3---3-5---3-1--3-----1-3---3-5---3-1---3-----------------|

Outro (3:52)
G|---------------------------------------------------------------|
D|---------------------------------------------------------------|
A|--------------------3------------------------3 let ring--------|
E|-1-3---3-5---3-1---3------1-3---3-5---3-1---3------------------|


| /  slide up
| \  slide down
| h  hammer-on
| p  pull-off
| ~  vibrato
| +  harmonic
| x  Mute note


            
            
Suggest correction
Creating personal tab
Creating personal tab
You can edit any tab online and save it as your Personal.

You can edit, replace or remove any tab part or add personal notes – all changes will be seen only by you.

Personal tabs can be accessed anytime from any device, even offline.
Learn more »
Give kudos to tab author, rate the tab!
1 2 3 4 5
comments
print report bad tab
guest
You may want to rate the tab now too:
select rating
Wanna post a correction for this tab? Suggest correction