Oops, an error
Loading. Please wait.

Right Here Waiting Chords

version 2
version 2

Whole song

Interactive

488,933 views 1,707 this week
15 commentsread comments
1 2 3 4 5
x 101
add to favorites
launch autoscroll
font size
0
reset
transpose
0
reset
simplify chords
display chords
guitar tuner
Autoscroll
slow
fast
+/-
esc
set tempo
stop
Help us to improve Ultimate-Guitar.com Take our survey!
×
Right Here Waiting
written by Richard Marx
from the CD "Repeat Offender"
------------------------------------
Tuning  : Standard ( E A D G B E )
Tabber  : mik3_shinoda83
Email   : becksman2@yahoo.com
Date    : 30th October 2003
Note    : This my first try. Pretty easy to play especially for beginners
          like me. Try it first and let me know.
          Special thanks to my beloved aleen..I will be right here waiting
          for you :D
*************************************************************************
Chord   :       Dm7 ( 0 0 0 2 1 1 )


[Intro]

  C                  G                   Am
e|-------3-3-1-0-------|----------0-0^1-0------|-----------0---------------|  
B|-----1----------3----|-------3-3-------------|----1-1--3---3-1--0--------|
G|---------------------|-----0---------------- |---------------------0^2-0-|
D|---2-----------------|---0-------------------|---2-----------------------|
A|-3-------------------|-2---------------------|-0-------------------------|
E|---------------------|-----------------------|---------------------------|

  C                  G                   Am
e|-------3-3-1-0-------|----------0-0^1-0------|-----------0-1-0-----------|  
B|-----1----------3----|-------3-3-------------|----1-1--3--------3--1^0-1-|
G|---------------------|-----0---------------- |---------------------------|
D|---2-----------------|---0-------------------|---2-----------------------|
A|-3-------------------|-2---------------------|-0-------------------------|
E|---------------------|-----------------------|---------------------------|


[Verse]

C       Am             F
Oceans apart day after day
        G       C
And I slowly go insane
C       Am             F
I hear your voice on the line
        G            Am
But it doesn't stop the pain


[Pre-Chorus]

Am             F
If I see you next to never
Am               F             C
How can we say forever


[Chorus]

C               G
Wherever you go
G              Am
Whatever you do
Am         F                C
I will be right here waiting for you
C               G
Whatever it takes
G               Am
Or how my heart breaks
Am         F                C
I will be right here waiting for you


[Verse]

C       Am             F
I took for granted, all the times
        G               C
That I though would last somehow
C        Am               F
I hear the laughter, I taste the tears
G                       Am
But I can't get near you now


[Pre-Chorus]

Am              F
Oh, can't you see it baby
Am              F      C
You've got me goin' crazy


[Chorus]

C               G
Wherever you go
G              Am
Whatever you do
Am         F                C
I will be right here waiting for you
C               G
Whatever it takes
G               Am
Or how my heart breaks
Am         F                C
I will be right here waiting for you


[Bridge]

Dm7     C         F
I wonder how we can survive
F
This romance
Dm7     C             F
But in the end if I'm with you
F           G
I'll take the chance


[Instrumental]

  C                  G                   Am
e|-------3-3-1-0-------|----------0-0^1-0------|-----------0---------------|  
B|-----1----------3----|-------3-3-------------|----1-1--3---3-1--0--------|
G|---------------------|-----0---------------- |---------------------0^2-0-|
D|---2-----------------|---0-------------------|---2-----------------------|
A|-3-------------------|-2---------------------|-0-------------------------|
E|---------------------|-----------------------|---------------------------|

  C                  G                   Am
e|-------3-3-1-0-------|----------0-0^1-0------|-----------0-1-0-----------|  
B|-----1----------3----|-------3-3-------------|----1-1--3--------3--1^0-1-|
G|---------------------|-----0---------------- |---------------------------|
D|---2-----------------|---0-------------------|---2-----------------------|
A|-3-------------------|-2---------------------|-0-------------------------|
E|---------------------|-----------------------|---------------------------|


[Pre-Chorus]

Am              F
Oh, can't you see it baby
Am              F      C
You've got me goin' crazy


[Chorus]

C               G
Wherever you go
G              Am
Whatever you do
Am         F                C
I will be right here waiting for you
C               G
Whatever it takes
G               Am
Or how my heart breaks
Am         F                C
I will be right here waiting for you


[Outro]

  C                  G                   Am
e|-------3-3-1-0-------|----------0-0^1-0------|-----------0---------------|  
B|-----1----------3----|-------3-3-------------|----1-1--3---3-1--0--------|
G|---------------------|-----0---------------- |---------------------0^2-0-|
D|---2-----------------|---0-------------------|---2-----------------------|
A|-3-------------------|-2---------------------|-0-------------------------|
E|---------------------|-----------------------|---------------------------|

  C                  G                   Am
e|-------3-3-1-0-------|----------0-0^1-0------|-----------0-1-0-----------|  
B|-----1----------3----|-------3-3-------------|----1-1--3--------3--1^0-1-|
G|---------------------|-----0---------------- |---------------------------|
D|---2-----------------|---0-------------------|---2-----------------------|
A|-3-------------------|-2---------------------|-0-------------------------|
E|---------------------|-----------------------|---------------------------|

(Repeat till fade)



*********************
|^       Hammer-on      
*********************


Hope you enjoy this song! :D
Suggest correction
comments
print report bad tab
15 comments total. Showing first comments.
+5 reply
Kjetil 104 Apr 30, 2006 06:27 PM

It's to much wrong in this song!there is no dm in this song! And in the vers it is: C G Am F G! Not C Am G, whatever, you know!
If you want me to teatch you the song, just send me a mail; k_gutt@hotmail.com

+2 reply
Naitsabes 10 May 13, 2006 11:44 PM

i quite like this version, im not sure about other versions but i reckon this sounds really good.

+3 reply
Amberkings 10 Aug 13, 2006 07:53 PM

I also like this version better, there is another version of this song on this site that doesn't make sense at all, but this one, albiet basic, sounds accurate enough to my novice ears.

guest
You may want to rate the tab now too:
select rating
Wanna post a correction for this tab? Suggest correction