Oops, an error
Loading. Please wait.

Right Here Waiting Tab

version 3
version 3
122,597 views 144 this week
1 commentread comment
1 2 3 4 5
x 7
add to favorites
launch autoscroll
font size
0
reset
how to read this tab
guitar tuner
Autoscroll
slow
fast
+/-
esc
set tempo
stop
Help us to improve Ultimate-Guitar.com Take our survey!
×
Author
[Intro]

     C              G                Am               F
e|-------3-3-1-0---|-----------0-1-0-|-----------------|---------------|
B|---------------3-|-------3-3-------|-------1-1-3-1-0-|-------1-1-0-1-|
G|-----0-----------|-----------------|-----2-----------|-------2-2-0-0-| 2x
D|---2-------------|-----0-----------|---2-------------|-----3---------|
A|-3---------------|---2-------------|-0---------------|---2-----------|
E|-----------------|-3---------------|-----------------|-1------1------|


[Verse 1]

C                F          Dm      G                     
  Oceans apart  day after day and I slowly go insane
C               F           Dm         G                             
  I hear your voice on the line But it doesn't stops the pain
Am                                   Dm7     G 
 If  I see you next to never how can we say forever


[Chorus]

C             G                Am
Wherever you go, what ever you do  
            F         G               
I will be right here waiting for you
C            G                    Am
Whatever it takes or how my heart breaks,
            F             G       Am
I will be right here waiting for you


[Verse 2]

C       F                Dm     
 I took for granted all the times
         G
 That I thought would last somehow

C              F                       Dm                       
 I hear the laughter  I taste the tears
          G     
 But I can't get near you know
Am           Dm7  
 Oh Can't you see it baby
Am           Dm7   G  
 You got me going crazy


[Chorus]

C             G                Am
Wherever you go, what ever you do  
            F         G               
I will be right here waiting for you
C            G                    Am
Whatever it takes or how my heart breaks,
            F             G           Dm7
I will be right here waiting for you
         C/E            F
I wonder how we can survive this romance
Dm7           C/E                  F
       But in the end if I'm with you 
              Gsus4
I'll take my chance


[Adlib]

C                   G            Am           F
e|--3-3-1-0---|------0-1-0-|-----------|--1-0----------|
B|----------3-|--3-3-------|--1-1-3----|-------3-1-----|
G|------------|------------|-----------|-----------2-0-| 
D|------------|------------|-----------|---------------|
A|------------|------------|-----------|---------------|
E|------------|------------|-----------|---------------|

C                   G            Am           F
e|--3-3-1-0---|------0-1-0-|-----------|-0-1-0---------|
B|----------3-|--3-3-------|--1-1-3----|-------3-1-0-1-|
G|------------|------------|-----------|---------------| 
D|------------|------------|-----------|---------------|
A|------------|------------|-----------|---------------|
E|------------|------------|-----------|---------------|


[Bridge]

Am           Dm7  
 Oh Can't you see it baby
Am           Dm7   G  
 You got me going crazy


[Chorus]

C             G                Am
Wherever you go, what ever you do  
            F         G               
I will be right here waiting for you

C            G                    Am
Whatever it takes or how my heart breaks,
            F             G       Am
I will be right here waiting for you

C   G  Am 

F         G     C
Waiting for you
Suggest correction
comments
print report bad tab
1 comment total.
0 reply
id74em8 10 Mar 05, 2014 02:06 AM

I see real dedication right there. Excellent work, by the way.

guest
You may want to rate the tab now too:
select rating
Wanna post a correction for this tab? Suggest correction