Oops, an error
Loading. Please wait.
We have Chord Pro version of Right Here Waiting.
It's the closest thing you can get to the original song and it has interactive parts. Check out the tab »
×
532,000 views 534 this week
16 commentsread comments
1 2 3 4 5
x 88
add to favorites
launch autoscroll
font size
0
reset
how to read this tab
guitar tuner
Autoscroll
slow
fast
+/-
esc
set tempo
stop
Author
Richard Marx - Right here waiting for you


This is actualy a piano song with a little guitar solo in the middle.
But I tabbed it for guitar anyway, also involving bits and pieces of the basguitar  


[Intro:]
  C               Gsus4           Am            F
|-----0-3-3-1-0-------------0-1-0---------------0------------------|
|---------------3-------3-3-----------1-1---3-------3---1-0--------|
|---0-----------------0-------------------------------------2-0----|
|-------------------0---------------2-----2-------3----------------|
|-3-------------------------------0-------------------3------------|
|-----------------3------------------------------------------------|

  C               Gsus4           Am            F  
|-----0-3-3-1-0-------------0-1-0-------------0-1---0--------------|
|---------------3-------3-3-----------1-1---3---------3---1-0-1----|
|---0-----------------0--------------------------------------------|
|-------------------0---------------2-----2------------------------|
|-3-------------------------------0--------------------------------|
|-----------------3-------------------------------1-----3----------|

  Am
|--------------------------|
|-------0-1---------0-1----|
|-----2-----2-----2--------|
|---2-----------2----------|
|-0-----------0------------|
|-0------------------------|


[Verse 1:]
  C               F               Dm              Gsus4
|-------3---------------3---------------1-------------3-----3----|
|-----1-3-------------1-3-------------1-3-------------3-0-1-3----|
|---0---------------2---------------2---------------0------------|
|-------------------------------3-0------------------------------|
|-3--------------------------------------------------------------|
|---------------0-1-----------------------------1-3--------------|
         Oceans apart   day after day         and I slowly go insane

  C               F               Am              Gsus4            
|-------3---------------3---------------1---------------3----|
|-----1-3-------------1-3-------------1-3-------------0-3----|
|---0---------------2---------------2---------------0--------|
|-------------------------------3-0--------------------------|
|-3---------------------------------------------3-2----------|
|---------------0-1------------------------------------------|
         I hear your voice on the line,       but it doesn't stop the pain

  Am          F           Am          F                     
|-------0-0---------------------0-0---1------|
|-------0-1---------------------0-1---1------|
|-----2-----------------------2--------------|
|---2-----------------------2----------------|
|-0---------2-3-------3\0-0------------------|
|-----------------------------------0-1-3----|
         If I see you next to never, how can we say forever 


[Chorus:]
  C                 Gsus4         Am              F
|-------3-3-1-0-------------0-1-0---------------0--------------------|
|-----1---------3-------3-3---------1---1---3-------3---1---1--------|
|---0-----------------0---------------0---0---0---0---0---0---2-0----|
|-------------------0------------------------------------------------|
|-3-------------------------------0----------------------------------|
|-----------------3-------------------------------3------------------|
        Wherever you go, whatever you do 
                                    I will be right her waiting for you 

  C                 Gsus4         Am              F 
|-------3-3-1-0-------------0-1-0-----------0---1---0----------------|
|-----1---------3-------3-3-----------1-3---------------3---1-0-1----|
|---0-----------------0-------------2-----0---0---0---0---0----------|
|-------------------0------------------------------------------------|
|-3-------------------------------0----------------------------------|
|-----------------3-------------------------------3------------------|
        Whatever it takes or how my heart breaks, 
                                    I will be right her waiting for you

  Am        
|----------------------------|
|-------0-1---------0-1------|
|-----2-----2-----2-----2----|
|---2-----------2------------|
|-0-----------0--------------|
|-0--------------------------|


[Verse 2:]
  C               F               Dm              Gsus4
|-------3---------------3---------------1-------------3-----3----|
|-----1-3-------------1-3-------------1-3-------------3-0-1-3----|
|---0---------------2---------------2---------------0------------|
|-------------------------------3-0------------------------------|
|-3--------------------------------------------------------------|
|---------------0-1-----------------------------1-3--------------|
         I took for granted all the times     that I thought would last somehow

  C               F               Am              Gsus4
|-------3---------------3---------------1---------------3----|
|-----1-3-------------1-3-------------1-3-------------0-3----|
|---0---------------2---------------2---------------0--------|
|-------------------------------3-0--------------------------|
|-3---------------------------------------------3-2----------|
|---------------0-1------------------------------------------|
         I hear the laughter, I taste the tears, but I can't get near you know

  Am          F           Am          F 
|-------0-0---1-----------------0-----1------|
|-------0-1---1-----------------1-1---1------|
|-----2-----------------------2---2----------|
|---2-----------------------2----------------|
|-0---------2-3-------3\0-0------------------|
|-----------------------------------0-1-3----|
         Oh can't you see it baby, you got me going crazy


[Chorus:]
  C               Gsus4           Am              F 
|-------3-3-1-0-------------0-1-0---------------0--------------------|
|-----1---------3-------3-3---------1---1---3-------3---1---1--------|
|---0-----------------0---------------0---0---0---0---0---0---2-0----|
|-------------------0------------------------------------------------|
|-3-------------------------------0----------------------------------|
|-----------------3-------------------------------3------------------|
        Wherever you go, whatever you do 
                                    I will be right her waiting for you        

  C               Gsus4           Am              F            
|-------3-3-1-0-------------0-1-0-----------0---1---0----------------|
|-----1---------3-------3-3-----------1-3---------------3---1-0-1----|
|---0-----------------0-------------2-----0---0---0---0---0----------|
|-------------------0------------------------------------------------|
|-3-------------------------------0----------------------------------|
|-----------------3-------------------------------3------------------|
        Whatever it takes or how my heart breaks, 
                                    I will be right her waiting for you


[Bridge:]
  Dm7       C         F
|-1---1---3-0---0-----1-----1-1-0-1-3----|
|-2---2-----1---1-----1-----1-1-1-1-1----|
|-2---2---0-0---0-----2-2-2-2-2-2-2-2----|
|-0-0-0-0---2---2-----3-3-2-3-3-3-3-1----|
|-0---0-----3-3-3-----3-3-3--------------|
|-----------------0-0-1-1-1--------------|
        I wonder how we can survive this romance

  Dm7       C         F         Gsus4
|-1---1---3-0---0-----1-----1-1-3-3-3-3-3----|
|-2---2-----1---1-----1-----1-1-3-3-3-3------|
|-2-2-2---0-0---0-----2---2-2-2-0-0-0-0------|
|-0---0-0---2---2-----3-3-3-3-3-0-0-0-0------|
|-0---0-----3-3-3-----3---3-3-3-2-2-2-2------|
|-----------------0-0-1---1-----3-3-3-3------|
        But in the end if I'm with you I'll take my chance


[Solo:]
  C          Gsus4       Am          F 
|-3-3-1-0---------------------------------------|
|---------3--3-3-5-5/6-5-1-1-3-3/5-3-1-0--------|
|------------------------2-2-0-----------2-0----|
|-----------------------------------------------|
|-----------------------------------------------|
|-----------------------------------------------|

  C          Gsus4       Am          F          
|-3-3-1-0----------------------3/5-3-1-0---0----|
|---5-3-1-3--3-3-5-5/6-5-1-1-3-5/6-5-3-1-3-1----|
|---------4--4-4-5-5h7-5---2-------------4------|
|-----------------------------------------------|
|-----------------------------------------------|
|-----------------------------------------------|


  Am          F           Am          F
|-------0-0---1-----------------0-0---1------|
|-------0-1---1-----------------0-1---1------|
|-----2-----------------------2--------------|
|---2-----------------------2----------------|
|-0---------2-3-------3\0-0------------------|
|-----------------------------------0-1-3----|
         Oh can't you see it baby, you got me going crazy 


[Chorus:]
  C               Gsus4           Am              F
|-------3-3-1-0-------------0-1-0---------------0--------------------|
|-----1---------3-------3-3---------1---1---3-------3---1---1--------|
|---0-----------------0---------------0---0---0---0---0---0---2-0----|
|-------------------0------------------------------------------------|
|-3-------------------------------0----------------------------------|
|-----------------3-------------------------------3------------------|
        Wherever you go, whatever you do 
                                    I will be right her waiting for you
  C               Gsus4           Am            F   
|-------3-3-1-0-------------0-1-0-----------0---5--3--1--0---0----|
|-----1---------3-------3-3-----------1-3-------6--5--3--1-3-1----|
|---0-----------------0-------------2-----0---0------------4------|
|-------------------0---------------------------------------------|
|-3-------------------------------0-------------------------------|
|-----------------3-----------------------------------------------|
        Whatever it takes or how my heart breaks, 
                                    I will be right her waiting for you


[Outro:]
  C               Gsus4         Am              F
|-------3-3-1-0-----------0-1-0-----5-----0----------------|
|-----1---------3---0-3-3---------5---1-3-----3-1-0--------|
|---0-------------0-------------2-------------------2-0----|
|-------------------------------------------3--------------|
|-3--------------------------------------------------------|
|----------------------------------------------------------|

  C                Gsus4         Am          F
|-------3-3-1-0---------------------------------------|
|-----1---------3--3-3-5-5/6-5-1-3-5-5/6-5-3----------|
|---0----------------------------------------5-4-5----|
|-----------------------------------------------------|
|-3---------------------------------------------------|
|-----------------------------------------------------|



************************************

| h  Hammer-on
| /  Slide up
| \  Slide down

************************************
Suggest correction
comments
print report bad tab
16 comments total. Showing first comments.
0 reply
stuartbartley 21 Jan 16, 2007 02:42 PM

the solo is played higher up. if u listen to it its a thicker noise so same notes but on A D and G strings like:

Solo

|------------------------------------------------------------------|
|------------------------------------------------------------------|
|-12-12-12-10-9----------------9-10-9------------9-10-9------------|
|---------------12----12-12-12----------10-10-12--------12-10-9----|
|---------------------------------------------------------------8--|
|------------------------------------------------------------------|

0 reply
stuartbartley 21 Jan 16, 2007 02:43 PM

my guitar is tuned down 1/2 step so i dunno if song is like this or if its played further up

0 reply
andreas5 793 Feb 04, 2007 09:59 AM

solo sound wrong at the end...

guest
You may want to rate the tab now too:
select rating
Wanna post a correction for this tab? Suggest correction