Oops, an error
Loading. Please wait.
We have Chord Pro version of Right Here Waiting.
It's the closest thing you can get to the original song and it has interactive parts. Check out the tab »
×
29,198 views 21 this week
2 commentsread comments
1 2 3 4 5
x 3
add to favorites
launch autoscroll
font size
0
reset
how to read this tab
guitar tuner
Autoscroll
slow
fast
+/-
esc
set tempo
stop
Intro:
e---5-5-3-2-0-0-0-2-3-2--------------------|
B------------------------------------------|
G------------------------------------------|
D------------------------------------------|
A------------------------------------------|
E------------------------------------------|

e------------------------------------------|
B---2-3-5-7-5-3-2-0------------------------|
G------------------------------------------|
D------------------------------------------|
A------------------------------------------|
E------------------------------------------|


Verse 1: D-A-Bm-G
D	 A	       	Bm
Oceans apart, day after day
 Bm       	G
And I slowly go insane
D            A	           Bm
I hear your voice, on the line
 Bm         	         G
But it doesn't stop the pain
D	     A		   Bm
If I see you next to never
 Bm         	   G
how can we say forever

Guitar 1 refrain:
D	     A		   Bm
Wherever you go, whatever you do
     Bm         	        G
I will be right here, waiting for you
D	           A
Whatever it takes, or how my heart breaks
 Bm         	         G
I will be right here waiting for you

refrain:
e---5-5-3-2-0-0-0-2-3-2--------------------|
B------------------------------------------|
G------------------------------------------|
D------------------------------------------|
A------------------------------------------|
E------------------------------------------|

e------------------------------------------|
B---2-3-5-7-5-3-2-0------------------------|
G------------------------------------------|
D------------------------------------------|
A------------------------------------------|
E------------------------------------------|

Play: D-A-Bm-G

Verse 2:
D	     A		   Bm
I took for granted, all The times
 Bm         	   G
That I thought would last somehow
D	     A		   Bm
I hear the laughter, I taste the tears
 Bm         	   G
But I can't get near you now
D	     A		   
Oh can't you see it baby,
 Bm         	   G
You've got me going crazy

Play refrain:
e---5-5-3-2-0-0-0-2-3-2--------------------|
B------------------------------------------|
G------------------------------------------|
D------------------------------------------|
A------------------------------------------|
E------------------------------------------|

e------------------------------------------|
B---2-3-5-7-5-3-2-0------------------------|
G------------------------------------------|
D------------------------------------------|
A------------------------------------------|
E------------------------------------------|

Bridge:
C	Am	    F	          C
I wonder how we can survive, this romance
C	   Am	           F		      G
But in the end if I'm with you, I'll take the chance

Play refrain chords

D	     A		   
Oh you can't see it baby
 Bm         	   G
You've got me going crazy

Play refrain 2x
e---5-5-3-2-0-0-0-2-3-2--------------------|
B------------------------------------------|
G------------------------------------------|
D------------------------------------------|
A------------------------------------------|
E------------------------------------------|

e------------------------------------------|
B---2-3-5-7-5-3-2-0------------------------|
G------------------------------------------|
D------------------------------------------|
A------------------------------------------|
E------------------------------------------|
Suggest correction
Give kudos to tab author, rate the tab!
1 2 3 4 5
comments
print report bad tab
2 comments total.
0 reply
AK-47 10 Aug 27, 2006 07:40 AM

I like the intro, its easy but its not the same.

0 reply
AK-47 10 Aug 27, 2006 07:42 AM

Also u messed up:

On here:

e------------------------------------------|
B---2-3-5-7-5-3-2-0------------------------|
G------------------------------------------|
D------------------------------------------|
A------------------------------------------|
E------------------------------------------|


It should be:

e------------------------------------------|
B---2-3-5-7-5-3-2-0------------------------|
G-------------------2----------------------|
D------------------------------------------|
A------------------------------------------|
E------------------------------------------|

I know, its no big deal.

guest
You may want to rate the tab now too:
select rating
Wanna post a correction for this tab? Suggest correction