Oops, an error
Loading. Please wait.

Time Warp Tab

88 views 18 this week
no commentswrite comment
1 2 3 4 5
3 more votes to show rating
add to favorites
launch autoscroll
font size
0
reset
how to read this tab
guitar tuner
Autoscroll
slow
fast
+/-
esc
set tempo
stop
Help us to improve Ultimate-Guitar.com Take our survey!
×
Author
Difficulty
intermediate
About this tab version
Attempted to tab out how they play the electric guitar instead of just the chords. Was this info helpful? Yes No
Richard O'Brien, Patricia Quinn, Little Nell
Time Warp (The Rocky Horror Picture Show // 1975)

Tabbed by Isaac Murguia, October 2016.
Originally uploaded to Ultimate-Guitar.com
Contact: www.youtube.com/user/Goadiroth

Listen to song to know when to palm mute.

[INTRO]
  Guitar 1 (palm muted)
e|---------------------|
B|---------------------|
G|---------------------|
D|-2242-2242-2242-2242-|
A|-0000-0000-0000-0000-|
E|---------------------| x2
  Layered Guitar
e|---------------------|
B|---------------------|
G|-2-------------------|
D|-2-------------------|
A|-0-------------------|
E|---------------------|

[VERSE 1] (palm mute until the last bit)
e|-----------------------------------------|-----------------------------------------|
B|-----------------------------------------|-----------------------------------------|
G|-----------------------------------------|-----------------------------------------|
D|-2242-2242-2242-2242-4444-4444-4444-4444-|-----------7777-7777-2242-2242-2242-2242-|
A|-0000-0000-0000-0000-2222-2220-2222-2220-|-5555-5555-5555-5550-0000-0000-0000-0000-|
E|-----------------------------------------|-3333-3330-------------------------------|
                                                              "..keep control.."
e|-----------------------------------------|-----------------------------------------|
B|-----------------------------------------|-----------------------------------------|
G|-----------------------------------------|-----------------------------------------|
D|-2242-2242-2242-2242-4444-4444-4444-4444-|-----------7777-7777-2242-2242-2242-2242-|
A|-0000-0000-0000-0000-2222-2222-2222-2220-|-5555-5555-5555-5550-0000-0000-0000-0000-|
E|-----------------------------------------|-3333-3330-------------------------------|

[PRE-CHORUS]
e|--------------------------|-3---x2----2---------------------|-----------------------------------------|
B|---------2---------5--4---|-0---x3----3---------------------|-----------------------------------------|
G|---------2------4--x--x-4-|-0---x2----2---------------------|-----------------------------------------|
D|-2242-2242---xxx4--4--4-4-|-0----0------2242-2242-2242-2242-|-2242-2242-2242-2242-4464-4464-4464-4464-|
A|-0000-0000---xxx2--2--2-2-|-2-----------0000-0000-0000-0000-|-0000-0000-0000-0000-2222-2222-2222-2222-|
E|--------------------------|-3-------------------------------|-----------------------------------------|
                                         start minimal palm mute

[CHORUS 1]
e|---------------------------------|--------------------------|
B|---------------------------------|--------------------------|
G|---------------------------------|--------------------------|
D|----5-----7--2242-2242-2242-2242-|----5-----7--2242-2242-2--|
A|-3--3--5--5--0000-0000-0000-0000-|-3--3--5--5--0000-0000-0--|
E|-1-----3-------------------------|-1-----3------------------|

[IT'S JUST A JUMP TO THE LEFT]
e|------------------------------------|--------------|
B|------------------------------------|--------------|
G|------------------------------------|--------------|
D|-9-9-11---9---11-9---9-11---9-9-11--|-2242-2242-2--|
A|-7-7-7----7---7--7---7-7----7-7-7---|-0000-0000-0--|
E|------------------------------------|--------------|

e|------------------------------------|---------------------|-2---2-2-----------------------|
B|------------------------------------|---------------------|-3---3-3-----------------------|
G|------------------------------------|---------------------|-2---2-2-----------------------|
D|-9-9-11---9---11-9---9-11---9-9-11--|-2242-2242-2242-2242-|-0---0-0---2242-2242-2242------|
A|-7-7-7----7---7--7---7-7----7-7-7---|-0000-0000-0000-0000-|-----------0000-0000-0000-0----|
E|------------------------------------|---------------------|----------------------------3~-|

[CHORUS 2]
e|---------------------------------|------------------------|
B|---------------------------------|---------------------2--|
G|---------------------------------|---------------------2--|
D|----5-----7--2242-2242-2242------|----5-----7--2242-2242--|
A|-3--3--5--5--0000-0000-0000-0----|-3--3--5--5--0000-0000--|
E|-1-----3----------------------3--|-1-----3----------------|

[VERSE 2]
e|-----------------------------------------|-----------------------------------------|
B|-----------------------------------------|-----------------------------------------|
G|-----------------------------------------|-----------------------------------------|
D|-2242-2242-2242-2242-4464-4464-4464-4464-|-----------7777-7777-2242-2242-2242-2242-|
A|-0000-0000-0000-0000-2222-2220-2222-2220-|-5555-5555-5555-5550-0000-0000-0000-0000-|
E|-----------------------------------------|-3333-3330-------------------------------| x3

e|-----------------------------------------|
B|-----------------------------------------|
G|-----------------------------------------|
D|-2242-2242-2242-2242-4464-4464-4464-4464-|
A|-0000-0000-0000-0000-2222-2222-2222-2220-|
E|-----------------------------------------|

[CHORUS 3]
e|---------------------------------|--------------------------------|
B|---------------------------------|--------------------------------|
G|---------------------------------|------------------------------2-|
D|----5-----7--2242-2242-2242------|----5-----7--2242-2242-22-----2-|
A|-3--3--5--5--0000-0000-0000-0----|-3--3--5--5--0000-0000-00-2h4-0-|
E|-1-----3----------------------3--|-1-----3------------------------|

[VERSE 3]
e|-5-5---5-5----5-5---5-5----|-10-10---10-10-----5-5---5-5----|
B|-5-5---5-5----5-5---5-5----|-10-10---10-10-----5-5---5-5----|
G|-----------6\-----------6\-|---------------11\-----------6\-|
D|---------------------------|--------------------------------|
A|---------------------------|--------------------------------|
E|---------------------------|--------------------------------|

e|-12-12---10-10-----5-5-----5-5----|
B|-12-12---10-10-----5-5-----5-5----|
G|---------------11\-----6\------6\-|
D|----------------------------------|
A|----------------------------------|
E|----------------------------------|

[CHORUS 4]
e|----------------------------|--------------------------|
B|----------------------------|--------------------------|
G|---------------------2-2----|--------------------------|
D|----5-----7--2242-2242-24-2-|----5-----7--2242-2242-2--|
A|-3--3--5--5--0000-0000-00-0-|-3--3--5--5--0000-0000-0--|
E|-1-----3--------------------|-1-----3------------------|

Repeat IT'S JUST A JUMP TO THE LEFT

[OUTRO]
e|---------------------------------|----------------------------------|
B|---------------------------------|----------------------------------|
G|---------------------------------|----------------------------------|
D|----5-----7--2242-2242-2242------|----5-----7--2242-2242-------2----|
A|-3--3--5--5--0000-0000-0000-0----|-3--3--5--5--0000-0000-4-3-2-0----|
E|-1-----3----------------------3--|-1-----3--------------------------|

End. Please rate! :D
Suggest correction
Give kudos to tab author, rate the tab!
1 2 3 4 5
comments
print report bad tab
guest
You may want to rate the tab now too:
select rating
Wanna post a correction for this tab? Suggest correction