Oops, an error
Loading. Please wait.

Reality chords

version 4
version 4

Whole song

  • My version is different, because I changed the cho... Show more
  • This version contain also the guitar tabs.

Interactive

106 views 9 this week
no commentswrite comment
1 2 3 4 5
3 more votes to show rating
add to favorites
×
Save as Personal and add changes to this tab that will be seen only by you. Learn more ›
×
You can save this tab as Personal to edit and correct it or add notes. All changes will be seen only by you. Learn more »
launch autoscroll
font size
0
reset
transpose
0
reset
simplify chords
display chords
guitar tuner
edit
Autoscroll
slow
fast
+/-
esc
set tempo
stop
Author
Difficulty
About this tab version
This version contain also the guitar tabs. Was this info helpful? Yes No
Strumming
There is no strumming pattern for this song yet. and get +5 IQ
[Intro]
G           Bm      Dm     E     D E  
e|--------|-------|-----------------|
B|------8-|-----8-|-----------------|
G|-9------|-7-----|-7-9/10-6-7/9-7~-|
D|---10---|---9---|-----------------|
A|--------|-------|-----------------|
E|--------|-------|-----------------|

[Verse 1]
G                    Bm
Met you by surprise, I didn't realize
Dm                           E   D E
That my life would change forever
Am                        Cm
Saw you standing there, I didn't know I'd cared
Bm7                 Em7            A7  D7
There was something special in the air.

[Chorus]
G                  B7
Dreams are my reality
                 Em7       A7
The only kind of real fantasy
          C            D7
Illusions are a common thing
  Bm7            Em7
I try to live in dreams
   Am7                      Fmaj D7
It seems as if it's meant to be.

[Bridge]
e|-------------------|
B|-------------------|
G|-14-12-10-12-12b13-|
D|-------------------|
A|-------------------|
E|-------------------|

[Chorus]
G                  B7
Dreams are my reality
                    Em7  A7
A different kind of reality
           C             D7
I dream of loving in the night
    Bm7            Em7
And loving seems alright
  Am7              D7   C  G
Although it's only fantasy.

[Bridge]
G           Bm      Dm     E     D E  
e|--------|-------|-----------------|
B|------8-|-----8-|-----------------|
G|-9------|-7-----|-7-9/10-6-7/9-7~-|
D|---10---|---9---|-----------------|
A|--------|-------|-----------------|
E|--------|-------|-----------------|

[Verse 2]
G                Bm
If you do exist, Honey don't resist
Dm                   E     D E
Show me a new way of loving
Am              
Tell me that it's true
Cm
Show me what to do
Bm7              Em7           A7  D7
I feel something special about you.

[Chrous]
G                  B7
Dreams are my reality
                 Em7  A7
The only kind of reality
         C               D7
Maybe my foolishness is past
    Bm7          Em7
And maybe now at last
Am7                           Fmaj D7
I'll see how a real thing can be.

[Bridge]
e|-------------------|
B|-------------------|
G|-14-12-10-12-12b13-|
D|-------------------|
A|-------------------|
E|-------------------|

[Chorus]
G                  B7
Dreams are my reality
                        Em7       A7
A wonderous world where I like to be
           C               D7
I dream of holding you all night
    Bm7               Em7
And holding you seems right
Am7                 D7 C  G
Perhaps that's my reality.

[Solo]
e|----------------------|--------------------------|--------12----------------------|
B|------------15--------|--------15b17-------------|-----------15-12----------------|
G|-/16~-14b16----b16r12-|-14b16~-------14b16----14-|-14b16~----------15-14-12-14-12-|
D|----------------------|--------------------13----|--------------------------------|
A|----------------------|--------------------------|--------------------------------|
E|----------------------|--------------------------|--------------------------------|

e|-----------------------------|-----------------------|-------------------------17b19-17b19r15----|
B|-----------------------------|-----------------------|-------15----15-17b19r15----------------15-|
G|-14b16-14b16-12--------12----|-14b16r12-12-12-12/14~-|-14-16----16-------------------------------|
D|----------------14\-14----14-|-----------------------|-------------------------------------------|
A|-----------------------------|-----------------------|-------------------------------------------|
E|-----------------------------|-----------------------|-------------------------------------------|

e|-17b19-----------12-------------|--------------------------|
B|-------17-17\-15----15-12-------|--------------------------|
G|--------------------------15-14-|-12-14-14b16-14b16r12-12~-|
D|--------------------------------|--------------------------|
A|--------------------------------|--------------------------|
E|--------------------------------|--------------------------|

[Verse 3]
G                    Bm7
Met you by surprise, I didn't realize
Dm                           E   D E
That my life would change forever
Am            
Tell me that it's true
Cm
Feelings that on you
Bm7              Em7           A7  D7
I feel something special about you.

[Chorus]
G                  B7
Dreams are my reality
                          Em7     Am7
A wonderous world where I like to be
          C            D7
Illusions are a common thing
  Bm7            Em7
I try to live in dreams
Am7                D7   C  G
Although it's only fantasy.

[Bridge]
e|-------------------|
B|-------------------|
G|-14-12-10-12-12b13-|
D|-------------------|
A|-------------------|
E|-------------------|

[Chorus]
G                  B7
Dreams are my reality
                   Em7          Am7
I like to dream of you close to me
           C             D7
I dream of loving in the night
    Bm7              Em7
And loving you seems right
Am7                 D7 C  G
Perhaps that's my reality.

[Outro]
e|-----------------------|
B|-----------------------|
G|-12b13-10b11-8b9-10b12-|
D|-----------------------|
A|-----------------------|
E|-----------------------|


***********************************

| b   - bend
| r   - bend release 
| /   - Slide up
| \   - Slide down
| ~   - vibrato

***********************************

            
            
Suggest correction
Creating personal tab
Creating personal tab
You can edit any tab online and save it as your Personal.

You can edit, replace or remove any tab part or add personal notes – all changes will be seen only by you.

Personal tabs can be accessed anytime from any device, even offline.
Learn more »
Give kudos to tab author, rate the tab!
1 2 3 4 5
comments
print report bad tab
guest
You may want to rate the tab now too:
select rating
Wanna post a correction for this tab? Suggest correction