Oops, an error
Loading. Please wait.

Pony In The Stable chords

37 views 3 this week
no commentswrite comment
1 2 3 4 5
3 more votes to show rating
add to favorites
×
Save as Personal and add changes to this tab that will be seen only by you. Learn more ›
×
You can save this tab as Personal to edit and correct it or add notes. All changes will be seen only by you. Learn more »
launch autoscroll
font size
0
reset
transpose
0
reset
simplify chords
display chords
guitar tuner
edit
Autoscroll
slow
fast
+/-
esc
set tempo
stop
Author
Difficulty
Strumming
There is no strumming pattern for this song yet. and get +5 IQ
Played over E chord
E|----------------------------------------------------------------------------------------|
B|----------------------------------------------------------------------------------------|
G|-----1--2--1-----------1--2--1-----1--2--4—------1--2--1-----------1--2--1-----1--2--4—-|
D|--2-----------2--0--2-----------2-------------2-----------2--0--2-----------2-----------|
A|----------------------------------------------------------------------------------------|
E|----------------------------------------------------------------------------------------|   

E|--0--0--0--0------------------------------0--0--0--0----------------------------|
B|--5--3--2--0-----0--2---------------------5--3--2--0-----0--2-------------------|
G|----------------2---------2--1--2--4--------------------2---------2--1--2--4----| 
D|--------------------------------------------------------------------------------|
A|--------------------------------------------------------------------------------|
E|--------------------------------------------------------------------------------| 

Played over D chord
E|------------------------------------------------------------------------|
B|------------------------------------------------------------------------|
G|------------------------------------------------------------------------|
D|---4—5--4-----------4—5--4---4—5--7----4—5--4-----------4—5--4---4—5--7-|
A|-5-----------5—3--5-----------5------5-----------5—3--5-----------5-----|
E|------------------------------------------------------------------------|  

E|------------------------------------------------------------------------|
B|-3—3—3--3----------------------------3—3—3--3---------------------------|
G|-7—5—4--------------4----------------7—5—4--------------4---------------|  
D|---------------7--5--7----5—4—5--7-----------------7--5--7----5—4—5--7--|
A|------------------------------------------------------------------------|
E|------------------------------------------------------------------------|

Played over F chord
E|--------------------------------------------------------------------------------|
B|--------------------------------------------------------------------------------|
G|--------------------------------------------------------------------------------|
D|-----7—8--7-----------7—8--7----7—8--10------7—8--7-----------7—8--7----7—8--10-|
A|-8-------------8—6--8-----------8--------8-------------8—6--8-----------8-------|
E|--------------------------------------------------------------------------------|

E|-6---6--6--6------------------------6---6--6--6-----------------------|
B|-10-8--7--5----5--7-----------------10-8--7--5----5--7----------------|
G|---------------8--------8—7—8--10-----------------8--------8—7—8--10--|
D|----------------------------------------------------------------------|
A|----------------------------------------------------------------------|
E|----------------------------------------------------------------------|
 
  E       Esus4  E      E7       E       Esus4  E            E7
You're messing with my mind, You're thrilling me but killing me 
E       Esus4  E     E7     E       Esus4  E              E7
I'm missing all the signs, You're rushing me and crushing me
E
Same old same old  Packs of lies and compromises 
E
Same old same old  Pony in the stable

E        Esus4  E       E7
You've got me where it stings
E        Esus4  E       E7                      
Wrapped around your little finger
E        Esus4  E       E7
Sold off all my things
E        Esus4  E       E7                       
Begging like a carol singer
E
Same old same old  Bread and dripping on the table
E
Same old same old   Pony in the stable


D                  D7
Forgive me if I sneer
D                        D7
You're used to being Cleopatra
D                   D7
You don't like to hear
D                             D7
The stuff you dish out come back at you
D
Same old same old  Packs of lies and compromises 
D
Same old same old Pony in the stable


E                      E7
I'm flattered but I'm scared
E                               E7
You picked me out from all the others
E                   E7
Should have been prepared
E                            E7
For friends to parlay into lovers
E
Same old same old  Bread and dripping on the table
E
Same old same old  Pony in the stable

       C#             D
You're messing with my mind 
           
You're thrilling me but killing me 
  C#                  D
I'm missing all the signs 

You're rushing me and crushing me

E     D   A   G    A                E
Same old same old Packs of lies and compromises
E     D   A   G    A               E
Same old same old Pony in the stable

F    
Fmaj7/E
Suggest correction
Creating personal tab
Creating personal tab
You can edit any tab online and save it as your Personal.

You can edit, replace or remove any tab part or add personal notes – all changes will be seen only by you.

Personal tabs can be accessed anytime from any device, even offline.
Learn more »
Give kudos to tab author, rate the tab!
1 2 3 4 5
comments
print report bad tab
guest
You may want to rate the tab now too:
select rating
Wanna post a correction for this tab? Suggest correction