Oops, an error
Loading. Please wait.

Going Back To My Roots bass

55 views 3 this week
no commentswrite comment
1 2 3 4 5
2 more votes to show rating
add to favorites
×
Save as Personal and add changes to this tab that will be seen only by you. Learn more ›
×
You can save this tab as Personal to edit and correct it or add notes. All changes will be seen only by you. Learn more »
launch autoscroll
font size
0
reset
guitar tuner
edit
Autoscroll
slow
fast
+/-
esc
set tempo
stop
Artist: Richie Havens
Song: Going Back To My Roots
Tuning - Standard
Time 4/4 120bpm
tabbed by electricbunny

[Intro Bass] 
G|------------------------4-------|--------------------------------|
D|--------------------------------|--------------------------------|
A|--------------------------------|2-----------------------------2-|
E|--------------------------------|--------------------------------|
 
G|--------------------------------|--------------------------------|
D|--------------------------------|--------------------------------|
A|2-------------------------------|--------------------------------|
E|----------------------------2---|0---------------------------1-1-|
 
G|--------------------------------|--------------------------------|
D|--------------------2---4-------|--------------------------------|
A|--------------------------------|2-----------------------------2-|
E|1---------------------------5---|--------------------------------|
 
G|--------------------------------|--------------------------------|
D|--------------------------------|2-------------------------------|
A|2-----------------------4---5---|--------------------------------|
E|--------------------------------|------------------------------0-|
 
G|--------------------------------|--------------------------------|
D|--------------------2---4-------|--------------------------------|
A|--------------------------------|2-----------------------------2-|
E|0---------------------------5---|--------------------------------|
 
G|--------------------------------|--------------------------------|
D|--------------------------------|--------------------------------|
A|2-----------------------0-------|--------------------------------|
E|----------------------------2---|0-------------------------------|
 
G|--------------------------------|--------------------------------|
D|--------------------2---4-------|--------------------------------|
A|--------------------------------|2-----------------------------2-|
E|----------------------------5---|--------------------------------|
 
G|--------------------------------|--------------------------------|
D|--------------------------------|2-------------------------------|
A|2-----------------------4---5---|--------------------------------|
E|--------------------------------|------------------------------0-|
 
G|--------------------------------|--------------------------------|
D|--------------------2---4-------|--------------------------------|
A|--------------------------------|2-----------------------------2-|
E|0---------------------------5---|--------------------------------|
 
G|--------------------------------|--------------------------------|
D|--------------------------------|------------------------------2-|
A|2-----------------------0-------|--------------------------------|
E|----------------------------2---|0-------------------------------|
 
G|--------------------------------|--------------------------------|
D|--------------------2---4-------|--------------------------------|
A|--------------------------------|2-----------------------------2-|
E|0---------------------------5---|--------------------------------|
 
G|--------------------------------|--------------------------------|
D|--------------------------------|--------------------------------|
A|2-----------------------0-------|--------------------------------|
E|----------------------------2---|0-----------------------------0-|

                                  [Verse]
G|--------------------------------|--------------------------------|
D|--------------------2---4-------|--------------------------------|
A|--------------------------------|2---------------2-----------0-2-|
E|0---------------------------5---|--------------------------------|
 
G|--------------------------------|--------------------------------|
D|--------------------------------|--------------------------------|
A|2-------------2-2-------0-------|--------------------------------|
E|----------------------------2---|0-------------------------------|
 
G|--------------------------------|--------------------------------|
D|--------------------2---4-------|--------------------------------|
A|--------------------------------|2---------------2-----------0-2-|
E|0---------------------------5---|--------------------------------|
 
G|--------------------------------|--------------------------------|
D|--------------------------------|--------------------------------|
A|2-------------2-2-------0-------|--------------------------------|
E|----------------------------2---|0-------------0-0---------------|
 
G|--------------------------------|--------------------------------|
D|--------------------2---4-------|--------------------------------|
A|--------------------------------|2---------------2-----------0-2-|
E|0-------------0-0-----------5---|--------------------------------|
 
G|--------------------------------|--------------------------------|
D|--------------------------------|--------------------------------|
A|2-------------2-2-------0-------|--------------------------------|
E|----------------------------2---|0-------------0-0---------------|
 
G|--------------------------------|--------------------------------|
D|--------------------2---4-------|--------------------------------|
A|--------------------------------|2---------------2-----------0-2-|
E|0-------------0-0-----------5---|--------------------------------|
 
G|--------------------------------|--------------------------------|
D|--------------------------------|--------------------------------|
A|2-------------2-2-------0-------|--------------------------------|
E|----------------------------2---|0-------------0-0---------------|
 
G|--------------------------------|--------------------------------|
D|--------------------2---4-------|--------------------------------|
A|--------------------------------|--------------------------------|
E|0-------------0-0-----------5---|3---------------2---------------|
 
G|--------------------------------|--------------------------------|
D|--------------------------------|--------------------------------|
A|----------------3---------------|--------------------------------|
E|0-------------------------------|--------------------------------|

[Chorus] 
G|--------------------------------|--------------------------------|
D|--------------------------------|--------------------------------|
A|2-------------2-2---2-----------|2-----2-------------------0-----|
E|------------------------2---2---|----------------3---3---3-------|
 
G|--------------------------------|--------------------------------|
D|2-------------2-2---2-----------|--------------------2-------4---|
A|------------------------2---2---|--------------------------------|
E|--------------------------------|0-------------0-0-------2-------|
 
G|--------------------------------|--------------------------------|
D|--------------------------------|--------------------------------|
A|2-------------2-2---2-----------|2-----2-------------------0-----|
E|------------------------2---2---|----------------3---3---3-------|
 
G|--------------------------------|--------------------------------|
D|2-------------2-2---2-----------|--------------------2-------4---|
A|------------------------2---2---|--------------------------------|
E|--------------------------------|0-------------0-0-------2-------|
 
G|--------------------------------|--------------------------------|
D|--------------------------------|--------------------------------|
A|2-------------2-2---2-----------|2-----2-------------------0-----|
E|------------------------2---2---|----------------3---3---3-------|
 
G|--------------------------------|--------------------------------|
D|2-------------2-2---2-----------|--------------------2-------4---|
A|------------------------2---2---|--------------------------------|
E|--------------------------------|0-------------0-0-------2-------|
 
G|--------------------------------|--------------------------------|
D|--------------------------------|--------------------------------|
A|2-------------2-2---2-----------|2-----2-------------------0-----|
E|------------------------2---2---|----------------3---3---3-------|
 
G|--------------------------------|--------------------------------|
D|2-------------2-2---2-----------|--------------------------------|
A|------------------------2---2---|0---------------1---------------|
E|--------------------------------|--------------------------------|

[Verse] 
G|--------------------------------|--------------------------------|
D|--------------------------------|--------------------------------|
A|2---------------2-----------0-2-|2-------------2-2-------0-------|
E|--------------------------------|----------------------------2---|
 
G|--------------------------------|--------------------------------|
D|--------------------------------|--------------------2---4-------|
A|--------------------------------|--------------------------------|
E|0-------------0-0-----------0-0-|0-------------0-0-----------5---|
 
G|--------------------------------|--------------------------------|
D|--------------------------------|--------------------------------|
A|2---------------2-----------0-2-|2-------------2-2-------0-------|
E|--------------------------------|----------------------------2---|
 
G|--------------------------------|--------------------------------|
D|--------------------------------|--------------------2---4-------|
A|--------------------------------|--------------------------------|
E|0-------------0-0-----------2---|0-------------0-0-----------5---|
 
G|--------------------------------|--------------------------------|
D|--------------------------------|--------------------------------|
A|2---------------2-----------0-2-|2-------------2-2-------0-------|
E|--------------------------------|----------------------------2---|
 
G|--------------------------------|--------------------------------|
D|--------------------------------|--------------------2---4-------|
A|--------------------------------|--------------------------------|
E|0-------------0-0-----------2---|0-------------0-0-----------5---|
 
G|--------------------------------|--------------------------------|
D|--------------------------------|--------------------------------|
A|2---------------2-----------0-2-|2-------------2-2-------0-------|
E|--------------------------------|----------------------------2---|
 
G|--------------------------------|--------------------------------|
D|--------------------------------|--------------------2---4-------|
A|--------------------------------|--------------------------------|
E|0-------------0-0-----------2---|0-------------0-0-----------5---|
 
G|--------------------------------|--------------------------------|
D|--------------------------------|--------------------------------|
A|--------------------------------|----------------3---------------|
E|3---------------2---------------|0-------------------------------|
 
                                  [Chorus]
G|--------------------------------|--------------------------------|
D|--------------------------------|--------------------------------|
A|--------------------------------|2-------------2-2---2-----------|
E|--------------------------------|------------------------2---2---|
 
G|--------------------------------|--------------------------------|
D|--------------------------------|2-------------2-2---2-----------|
A|2-----2-------------------0-----|------------------------2---2---|
E|----------------3---3---3-------|--------------------------------|
 
G|--------------------------------|--------------------------------|
D|--------------------2-------4---|--------------------------------|
A|--------------------------------|2-------------2-2---2-----------|
E|0-------------0-0-------2-------|------------------------2---2---|
 
G|--------------------------------|--------------------------------|
D|--------------------------------|2-------------2-2---2-----------|
A|2-----2-------------------0-----|------------------------2---2---|
E|----------------3---3---3-------|--------------------------------|
 
G|--------------------------------|--------------------------------|
D|--------------------2-------4---|--------------------------------|
A|--------------------------------|2-------------2-2---2-----------|
E|0-------------0-0-------2-------|------------------------2---2---|
 
G|--------------------------------|--------------------------------|
D|--------------------------------|------2-------2-2---2-----------|
A|2-----2-------------------0-----|------------------------2---2---|
E|----------------3---3---3-------|0-------------------------------|
 
G|--------------------------------|--------------------------------|
D|------2-------------2-------4---|--------------------------------|
A|--------------------------------|2-------------2-2---2-----------|
E|0-------------0-0-------2-------|------------------------2---2---|
 
G|--------------------------------|--------------------------------|
D|--------------------------------|------2-------2-2---2-----------|
A|2-----2-------------------0-----|------------------------2---2---|
E|----------------3---3---3-------|0-------------------------------|
 
                                  [Outro]
G|--------------------------------|--------------------------------|
D|--------------------------------|--------------------------------|
A|0---------------1---------------|2---------------2-----------0-2-|
E|--------------------------------|--------------------------------|
 
G|--------------------------------|--------------------------------|
D|--------------------------------|--------------------------------|
A|2-------------2-2-------0-------|--------------------------------|
E|----------------------------2---|0-------------0-0-----------0-0-|
 
G|--------------------------------|--------------------------------|
D|--------------------2---4-------|--------------------------------|
A|--------------------------------|2---------------2-----------0-2-|
E|0-------------0-0-----------5---|--------------------------------|
 
G|--------------------------------|--------------------------------|
D|--------------------------------|--------------------------------|
A|2-------------2-2-------0-------|--------------------------------|
E|----------------------------2---|0-------------0-0-----------2---|
 
G|--------------------------------|--------------------------------|
D|--------------------2---4-------|--------------------------------|
A|--------------------------------|2---------------2-----------0-2-|
E|0-------------0-0-----------5---|--------------------------------|
 
G|--------------------------------|--------------------------------|
D|--------------------------------|--------------------------------|
A|2-------------2-2-------0-------|--------------------------------|
E|----------------------------2---|0-------------0-0-----------2---|
 
G|--------------------------------|--------------------------------|
D|--------------------2---4-------|--------------------------------|
A|--------------------------------|2---------------2-----------0-2-|
E|0-------------0-0-----------5---|--------------------------------|
 
G|--------------------------------|--------------------------------|
D|--------------------------------|--------------------------------|
A|2-------------2-2-------0-------|--------------------------------|
E|----------------------------2---|0-------------0-0-----------2---|
 
G|--------------------------------|--------------------------------|
D|--------------------2---4-------|--------------------------------|
A|--------------------------------|2---------------2-----------0-2-|
E|0-------------0-0-----------5---|--------------------------------|
 
G|--------------------------------|--------------------------------|
D|--------------------------------|--------------------------------|
A|2-------------2-2-------0-------|--------------------------------|
E|----------------------------2---|0-------------0-0-----------2---|
 
G|--------------------------------|--------------------------------|
D|--------------------2---4-------|--------------------------------|
A|--------------------------------|2---------------2-----------0-2-|
E|0-------------0-0-----------5---|--------------------------------|
 
G|--------------------------------|--------------------------------|
D|--------------------------------|--------------------------------|
A|2-------------2-2-------0-------|--------------------------------|
E|----------------------------2---|0-------------0-0-----------2---|
 
G|--------------------------------|--------------------------------|
D|--------------------2---4-------|--------------------------------|
A|--------------------------------|2---------------2-----------0-2-|
E|0-------------0-0-----------5---|--------------------------------|
 
G|--------------------------------|--------------------------------|
D|--------------------------------|--------------------------------|
A|2-------------2-2-------0-------|--------------------------------|
E|----------------------------2---|0-------------0-0-----------2---|
 
G|--------------------------------|--------------------------------|
D|--------------------2---4-------|--------------------------------|
A|--------------------------------|2---------------2-----------0-2-|
E|0-------------0-0-----------5---|--------------------------------|
 
G|--------------------------------|--------------------------------|
D|--------------------------------|--------------------------------|
A|2-------------2-2-------0-------|--------------------------------|
E|----------------------------2---|0-------------0-0-----------2---|
 
G|--------------------------------|
D|--------------------2---4-------|
A|--------------------------------|
E|0-------------0-0-----------5---|

            
            
Suggest correction
Creating personal tab
Creating personal tab
You can edit any tab online and save it as your Personal.

You can edit, replace or remove any tab part or add personal notes – all changes will be seen only by you.

Personal tabs can be accessed anytime from any device, even offline.
Learn more »
Give kudos to tab author, rate the tab!
1 2 3 4 5
comments
print report bad tab
guest
You may want to rate the tab now too:
select rating
Wanna post a correction for this tab? Suggest correction