Oops, an error
Loading. Please wait.

Morning Morning Tab

4,174 views 15 this week
no commentswrite comment
1 2 3 4 5
3 more votes to show rating
add to favorites
launch autoscroll
font size
0
reset
how to read this tab
guitar tuner
Autoscroll
slow
fast
+/-
esc
set tempo
stop
Help us to improve Ultimate-Guitar.com Take our survey!
×
Author
Difficulty
-------------------------------------------------------------------------------
			     MORNING MORNING – Richie Havens
-------------------------------------------------------------------------------
Tabbed by: theleadguitar95
Email: guitaristjosh95@yahoo.com

Tuning: EADGBE

This song is really simple… only four chords

         D#  
e|---------------------------------------------------------------------------|
B|----------8----------------------------------------------------------------|
G|------8-------8------------------------------------------------------------|
D|----8---8---8---8----------------------------------------------------------|
A|--6------------------------------------------------------------------------|
E|---------------------------------------------------------------------------|
         G#
e|----------4----------------------------------------------------------------|
B|------4-------4------------------------------------------------------------|
G|----5---5---5---5----------------------------------------------------------|
D|--6------------------------------------------------------------------------|
A|---------------------------------------------------------------------------|
E|---------------------------------------------------------------------------|
          Bb
e|----------6----------------------------------------------------------------|
B|------6-------6------------------------------------------------------------|
G|----7---7---7---7----------------------------------------------------------|
D|--8------------------------------------------------------------------------|
A|---------------------------------------------------------------------------|
E|---------------------------------------------------------------------------|
    Cm
e|--8~~----------------------------------------------------------------------|
B|--8~~----------------------------------------------------------------------|
G|--8~~----------------------------------------------------------------------|
D|-10~-----------------------------------------------------------------------|
A|---------------------------------------------------------------------------|
E|---------------------------------------------------------------------------|


INTRO: D#
D#
Morning, Morning

Feel so lonesome in the morning
G#
Morning, Morning
Bb                 D#
Morning brings me grief


Sunshine, Sunshine

Sunshine left upon my face
G#
And the secret of the shining
Bb			 Cm
Puts me in my running place

D#
Evening, Evening

Feel so lonesome in the evening
G#
Evening, Evening
Bb		    D#
Evening brings me grief


Moonshine, Moonshine

Moonshine dots the hills with grace
G#
And the glory of the shining
Bb			    Cm
Seems to break my simple pace

D#
Nighttime, Nighttime

Feel so lonesome in the nighttime
G#
Nighttime, Nighttime
Bb		       D#
Does not bring me to relief


Starshine, Starshine

Chills the moon upon my cheek
G#
Starshine, Starshine
Bb			Cm
Darling kiss me as I leave
Suggest correction
Give kudos to tab author, rate the tab!
1 2 3 4 5
comments
print report bad tab
guest
You may want to rate the tab now too:
select rating
Wanna post a correction for this tab? Suggest correction