Oops, an error
Loading. Please wait.

Fooled Again Tab

508 views 21 this week
no commentswrite comment
1 2 3 4 5
3 more votes to show rating
add to favorites
launch autoscroll
font size
0
reset
how to read this tab
guitar tuner
Autoscroll
slow
fast
+/-
esc
set tempo
stop
Help us to improve Ultimate-Guitar.com Take our survey!
×
Author
Difficulty
Tuning
intermediate
E A D G B E
[Intro]

e|-----------------------------------|-----------------0-----------|
B|-----------------------------------|-----------------0-----------|
G|-----------------------------------|--7-(7)/9--9-----------------|
D|-----------------------------------|--7-(7)/9--9-----------------|
A|------10/12-14-12\10----10/12\10---|--5-(5)----x-----------------|
E|--0------------------12------------|-----------8--8--------------|

e|----0----------|----------------0--------------------------------|
B|----0----------|----------------0--------------------------------|
G|-4----------4--|--7-(7)/9--9-------------------------------------|
D|-4----------4--|--7-(7)/9--9-------------------------------------|
A|-x----------x--|--5-(5)----x-------------------------------------|
E|-3----3--3--3--|-----------8--8----------------------------------|


That's basically what Richie plays on the "Two Tone Sessions" version.


************************************

| x    Dead note
| (n)  Ghost note
| /    Slide up
| \    Slide down 

************************************
Suggest correction
Give kudos to tab author, rate the tab!
1 2 3 4 5
comments
print report bad tab
guest
You may want to rate the tab now too:
select rating
Wanna post a correction for this tab? Suggest correction