Oops, an error
Loading. Please wait.

Nowadays Tab

1,252 views 9 this week
no commentswrite comment
1 2 3 4 5
please rate
add to favorites
launch autoscroll
font size
0
reset
how to read this tab
guitar tuner
Autoscroll
slow
fast
+/-
esc
set tempo
stop
Help us to improve Ultimate-Guitar.com Take our survey!
×
This is what i think it is! Not 100% about the solo but other than that it sounds good! :)
Listen to the song to find the timing! :)
If you want to play this to his live videos must be tuned down a half step!

Intro
/= Slide
1010= 10th fret

E--------------------------------------------------------------------|
B--------------------------------------------------------------------|
G--7-7-7-7-7-7-7-7-----------------------------10101010-/9-9-9-9-9-9-|
D--------------------7-7-7-7-/8-8-8-8-8-8-8-8------------------------|
A--5-5-5-5-5-5-5-5------------------------------8-8-8-8-/7-7-7-7-7-7-|
E--------------------5-5-5-5-/6-6-6-6-6-6-6-6------------------------|


D               D
Another day comes you get up and go
A            A
You're ready to do your best,
B                     B                        G
Your busting you ass,But no one seems impressed,
D                        D
Ain't nothing wrong you're just getting along
A               A
And you think you're doing all right,
B                   B                G  G                                   But you're
walking right into a wrecking ball called life

[Chorus:]
This is just repeated and then you play the intro again and back into the chords!
E----------------------------------------------------------|
B----------------------------------------------------------|
G---7-7-7-7-7-----------4-4-4-4--6-6-6-6--7-7-7-7--9-9-9-9-|
D---7-7-7-7-7--8-8-8-8-------------------------------------|
A---5-5-5-5-5--5-5-5-5--2-2-2-2--4-4-4-4--5-5-5-5--7-7-7-7-|
E----------------------------------------------------------|
 Nowadays, trying to figure out who you want to be

 Trying to tell your friends from your enemies

 That's the way it plays nowadays

 Nowadays, trying to make some sense about the state of things,

 Hoping better times are what tomorrow brings,

 We're just all insane, nowadays

Politicians, bad ambitions,
 Walking wall street dead,
 Feeding scripted lines to talking heads
 Spinning their wheels they can't keep up,
 Things are moving way to fast.
 Time's running out
 And it's slipping through their grasp
 Yeah! Yeaah!

[Chorus]

Hey hey hey
 Nowadays
 Hey hey hey yey
 Nowadays

[Solo]
E-----------------------------|
B--------10101010--1212121212-|
G-----------------------------|   Do this 4 times!
D--999999---------------------|
A-----------------------------|
E-----------------------------|

E------------------------------|
B--14....-12....-10....-12-----|...
G------------------------------|
D------------------------------|    On the 4th time do this!
A------------------------------|
E------------------------------|

E-----------------------------|
B--14-12-10-12--14-12-10-12---|
G-----------------------------|  And do this at what ever speed you want!
D-----------------------------|
A-----------------------------|
E-----------------------------|
[Chorus]

Hey hey hey
 Nowadays
 Hey hey hey yey
 Nowadays

Hey hey hey
 Nowadays
 Hey hey hey yey
 Nowadays



If you want to play this to his live videos must be tuned down a half step!
Thank you! If you use this tab and put a video up on Youtube. You must have a link to
this tab on the video! hope this helps! Richie is an amazing guitarist! :)
Donnchadh W :)
Suggest correction
Give kudos to tab author, rate the tab!
1 2 3 4 5
comments
print report bad tab
guest
You may want to rate the tab now too:
select rating
Please do not post tabs as comments. Select "correction" instead!