Oops, an error
Loading. Please wait.
We have Chord Pro version of Never Gonna Give You Up.
It's the closest thing you can get to the original song and it has interactive parts. Check out the tab »
×

Never Gonna Give You Up tab

version 3
version 3

Whole song

  • A fingerstyle arrangement of the song Never Gonna Give You Up by Rick Astley.

Interactive

5,944 views 300 this week
no commentswrite comment
1 2 3 4 5
x 4
add to favorites
×
Save as Personal and add changes to this tab that will be seen only by you. Learn more ›
×
You can save this tab as Personal to edit and correct it or add notes. All changes will be seen only by you. Learn more »
launch autoscroll
font size
0
reset
how to read this tab
guitar tuner
backing track
0:00
0:00
edit
Autoscroll
slow
fast
+/-
esc
set tempo
stop
Author
Difficulty
About this tab version
A fingerstyle arrangement of the song Never Gonna Give You Up by Rick Astley. Was this info helpful? Yes No
Artist: Rick Astley
Song: Never Gonna Give You Up
AKA Rick Roll
Song by Rick Astley
Arranged by John Lee

     Q.     Q.     E  E     Q.     Q.     S S E     Q.     Q.     E  E     Q.     E  E  S S S S S S  
E|---------0------------|--0------2------5-3-2--|---------0------------|---------------------------|
B|--3------2------------|--2------3-------------|--3------2------------|-------------------0-3---3-|
G|--4-------------0-----|-----------------------|--4-------------0-----|---------------2-2---------|
D|----------------------|-----------------------|----------------------|---------------------------|
A|---------0---------L--|---------2----------L--|---------0---------L--|---------2-------------L---|
E|--3-------------------|--2--------------------|--3-------------------|--2------------------------|

     Q.     Q.     E  E     Q.     Q.     S S E     Q.     Q.     E  E     E  E  E  E  Q    S S S S  
E|---------0------------|--0------2------5-3-2--|---------0------------|---------------------------|
B|--3------2------------|--2------3-------------|--3------2------------|--2--3--3-----L----3-3---3-|
G|--4-------------0-----|-----------------------|--4-------------0-----|---------------------------|
D|----------------------|-----------------------|----------------------|---------------------------|
A|---------0---------L--|---------2----------L--|---------0---------L--|-----------2-----------L---|
E|--3-------------------|--2--------------------|--3-------------------|--2------------------------|

     Q    E  E  E  E  E  E     S S Q    E  Q    E  E     E  E  E  E  E  E  E  E     S E.  E  E  E  E  E  E   
E|-------------------0-----|-------------------------|--------------------------|--5-----5--0--------------|
B|-------0--2--3--3-----2--|--L-0--------------------|-----0--0--2--3--0--------|--------------------------|
G|----------------------2--|--L---2------------------|-----0-----------------2--|--------------------2-----|
D|-------------------------|-------------------------|--------------------------|-----------------------2--|
A|----------------------0--|--L--------0--0----------|--------------------------|--0-----------0-----------|
E|--3----------------L-----|-------------------4-----|--3-----------------3-----|-----------------0--------|

     E  E  E  E  E  E  E  E     E  E  E  E  Q    Q       E  E  E  E  E  E  Q       E  E  E  E  Q    Q     
E|-----------------------0--|------------------------|-------------------------|--0--0--0--2--0---------|
B|-----0--0--2--3--0--3-----|-----2--0---------------|-----0--0--2--3--0-------|--2---------------------|
G|-----0--------------------|-----2-----2------------|--------------------2----|------------------------|
D|--------------------------|------------------------|-------------------------|------------------------|
A|--------------------------|--0--------0--0---------|-------------------------|--0---------------------|
E|--3-----------------3-----|-------------------4----|--3-----------0----------|-------------------4----|

     E  E  E  E  E  E  E  E     E  E  E  E  E  E  E  E     E  E  E  E  E  E  E  E    E  E  E  Q.     S S S S  
E|-----------------0--2-----|--0--0--0--2--0-----------|--------------------------|----0--2--0--------------|
B|--3--------------------3--|--------------------------|--------------0--2--3--0--|-------------------0-3-0-|
G|-----0-----0--------------|--------------------2-----|-----0-----0--------------|-----------------2-------|
D|--------------------------|--------------------------|-----------------2-----2--|-------------------------|
A|--------------------------|--0-----0-----0--0--0--0--|--------------------------|-------------------------|
E|--3-----3-----3-----3-----|--------------------------|--3-----3-----0-----0-----|-------------------------|

     E.  E.  Q.     S S S S    E.  E.  Q.     S S S S    Q    E  E.  S E  E  E     E  E  H        S S S S  
E|--2---2---0--------------|--0---0------------------|-------0-----------------|--0----------------------|
B|--3---3---2--------0-3-0-|--2---2---3--------0-3-0-|--3-------2---0----------|--------3----------0-3-0-|
G|-----------------2-------|----------4------2-------|--4-------------2-----0--|--0-----2--------2-------|
D|-------------------------|-------------------------|-------------------------|-------------------------|
A|----------2--------------|----------2--------------|----------0--------0-----|--------2----------------|
E|--3---3------------------|--2---2------------------|--0----------------------|-------------------------|

     E.  E.  Q.     S S S S    Q    E  E.  S E  S S S S    Q    E  E.  S E  E  E     E  E  H        Q     
E|--2---2---0--------------|--5------------------------|-------0-----------------|--0-------------------|
B|--3---3---2--------0-3-0-|-------2--3---2-0----0-3-0-|--3-------2---0----------|--------3-------------|
G|-----------------2-------|----------4--------2-------|--4-------------2-----0--|--0-----2-------------|
D|-------------------------|---------------------------|-------------------------|----------------------|
A|----------2--------------|----------2----------------|----------0--------0-----|--------2-------------|
E|--3---3------------------|--2----2-------------------|--0----------------------|----------------------|


************************************

| W - whole
| H - half
| Q - quarter
| E - 8th
| S - 16th
| . - note dotted 

************************************

            
            
Suggest correction
Creating personal tab
Creating personal tab
You can edit any tab online and save it as your Personal.

You can edit, replace or remove any tab part or add personal notes – all changes will be seen only by you.

Personal tabs can be accessed anytime from any device, even offline.
Learn more »
comments
print report bad tab
guest
You may want to rate the tab now too:
select rating
Wanna post a correction for this tab? Suggest correction