Oops, an error
Loading. Please wait.

Rock N Roll Hoochie Koo Tab

version 5
version 5

Whole song

Interactive

50,296 views 153 this week
2 commentsread comments
1 2 3 4 5
excellent!
x 8
add to favorites
launch autoscroll
font size
0
reset
how to read this tab
guitar tuner
Autoscroll
slow
fast
+/-
esc
set tempo
stop
Help us to improve Ultimate-Guitar.com Take our survey!
×
Author
-------------------------------------------------------------------

 Rick Derringer - ROCK AND ROLL HOOCHIE KOO (Derringer) From JOHNNY
                  WINTER AND album. (Columbia 1971.)

-------------------------------------------------------------------

  Tabbed by:PJVillanueva
 
  F5                G5                A5
e|-------- -------- -------- --------|-------- -------- -------- --------|
B|-----------------------------------|-----------------------------------|
G|-----------------------------------|2---2--------2------2-2-2----2-2---|
D|3---3----3---3----5---5----5---5---|2---2------2---2--5-2-2-2--5-2-2---|
A|3---3----5---3----5---5----7---5---|0---0----3--------0-0-0-0--0-0-0---|
E|1---1----1---1----3---3----3---3---|-----------------------------------|

e|-------- -------- -------- --------|-------- -------- -------- --------|
B|----6----6---6--------8----8---8---|----17R1513----------10-8----------|
G|----5----7---5--------7----9---7---|-------------14-----9-----\7-5-7-5-|
D|-----------------------------------|-----------------------------------|
A|-----------------------------------|-----------------------------------|
E|-----------------------------------|-----------------------------------|


  F5                C        G        A5
e|-------- -------- -------- --------|-------- -------- -------- --------|
B|-----------------------------------|-----------------------------------|
G|------------------5----------------|-----------------------------------|
D|3----3---5--------5--------5-------|7---x-x--x-x-x-x--x-x-x-x--x-------|
A|3----3---3---0-2--3--------5-------|7---x-x--x-x-x-x--x-x-x-x--x-------|
E|1----1---1-----------------3-------|5---x-x--x-x-x-x--x-x-x-x--x-5-3B4-|

e|-------- -------- -------- --------|-------- -------- -------- --------|
B|---------------------------8-------10----------------------------------|
G|---------5-7-5----5--------7-------|9----------------------------------|
D|7--------------7--5--------5-------|7----------------------------7-5B6-|
A|------------------3----------------|-----------------------------------|
E|-----------------------------------|-----------------------------------|


  E7 (Eb7/E7...)
e|-------- -------- -------- --------|-------- -------- -------- --------|
B|-----------------------------------|-----------------------------------|
G|-----------------------------------|-----------------------------------|
D|---11H12--11H12--11H12--11H12-11H12|---11H12--11H12--11H12--11H12-11H12|
A|-----------------------------------|-----------------------------------|
E|0--------0-----0------0------0-----|0--------0-----0------0------0-----|
                                                                       I
e|-------- -------- -------- --------|-------- -------- -------- --------|
B|-----------------------------------|-----------------------------------|
G|-----------------------------------|-----------------------------------|
D|----5H6----5H6----5H6----5H6--5H6P5|----5H6----5H6----5B-----5B----5---|
A|7--------7-----7------7------7-----|7--------7-----7------7------7-----|
E|-----------------------------------|-----------------------------------|


  A5                C5    D5     C5
e|-------- -------- -------- --------|-------- -------- -------- --------|
B|-----------------------------------|-----------------------------------|
G|------------------5---5-7----7-5---|-----------------------------------|
D|7---7------7--7---5---5-7----7-5---|----7----7-5---------------7-\-----|
A|7---7------7--7---3---3-5----5-3---|-------------7-6--5-3------------7-|
E|5---5------5--5--------------------|-----------------------------------|
  Couldn'
      stop moving
              when it
                    first
                        took hold                                   It was a
e|-------- -------- -------- --------|-------- -------- -------- --------|
B|-----------------------------------|---8B10-B108---------------8B10----|
G|------------------5---5-7----7-5---|-------------9-8--7-5--------------|
D|7---7------7--7---5---5-7----7-5---|-----------------------------------|
A|7---7------7--7---3---3-5----5-3---|-----------------------------------|
E|5---5------5--5--------------------|-----------------------------------|

e|-------- -------- -------- --------|-------- -------- -------- --------|
B|-----------------------------------|-----------------------------------|
G|------------------5-----7------5---|-----------------------------------|
D/7---7------7------5-----7------5---|----7----7-5---------------7-\-----|
A/7---7------7------3-----5------3---|-------------7-6--5-3--------------|
E/5---5------5-----------------------|---------------------------------0-|
  wild spring
           night
            at the old town hall                             (There)was a
e|-------- -------- -------- --------|-------- -------- -------- --------|
B|-----------------------------------|-----------------------------------|
G|------------------5---5-7----7-5---|----6----6-4---------------6-~-----|
D|----7------7--7---5---5-7----7-5---|-------------7-6--5----------------|
A|----7------7--7---3---3-5----5-3---|--------------------7--------------|
E|----5------5--5--------------------|-----------------------------------|

e|-------- -------- -------- --------|-------- -------- -------- --------|
B|-----------------------------------|-----------------------------------|
G|------------------5-----7----7-5---|-----------------------------------|
D/7---7------7------5-----7----7-5---|----7----7-5---------------7-\-----|
A/7---7------7------3-----5----5-3---|-------------7-6--5-3------------7-|
E/5---5------5-----------------------|-----------------------------------|
  band
    called
       The Jokers
             they were
                    laying it down                                  Don't you
e|-------- -------- -------- --------|-------- -------- -------- --------|
B|-----------------------------------|---8B10-B108---------------8B10----|
G|------------------5---5-7----7-5---|-------------9-8--7-5--------------|
D|7---7------7--7---5---5-7----7-5---|-----------------------------------|
A|7---7------7--7---3---3-5----5-3---|-----------------------------------|
E|5---5------5--5--------------------|-----------------------------------|


e|-------- -------- -------- --------|-------- -------- -------- --------|
B|-----------------------------------|-----------------------------------|
G|------------------5-----7------5---|-----------------------------------|
D/7---7------7------5-----7------5---|----7----7-5---------------7-\-----|
A/7---7------7------3-----5------3---|-------------7-6--5-3--------------|
E/5---5------5-----------------------|---------------------------------0-|
  know
    I'm never
          gonna lose
                 that funky sound                                    Hey!
e|-------- -------- -------- --------|-------- -------- -------- --------|
B|-----------------------------------|-----------------------------------|
G|------------------5---5-7----7-5---|----6----6-4---------------6-~-----|
D|----7------7--7---5---5-7----7-5---|-------------7-6--5----------------|
A|----7------7--7---3---3-5----5-3---|--------------------7--------------|
E|----5------5--5--------------------|-----------------------------------|

  F5                G5                A5
e|-------- -------- -------- --------|-------- -------- -------- --------|
B|-----------------------------------|-----------------------------------|
G|-----------------------------------|2---2--------2----5---2------2-----|
D|3---3----3---3----5---5----5---5---|2---2------2---2--5---2----5-2-----|
A|3---3----5---3----5---5----7---5---|0---0----3--------0---0----0-0-----|
E|1---1----1---1----3---3----3---3---|-----------------------------------|
      Rock'n'  roll     hoochie  koo
e|-------- -------- -------- --------|-------- -------- -------- --------|
B|----6----6---6--------8----8---8---|----17R1513----------10-8----------|
G|----5----7---5--------7----9---7---|-------------14-----9------7-5-7975|
D|-----------------------------------|-----------------------------------|
A|-----------------------------------|-----------------------------------|
E|-----------------------------------|-----------------------------------|

  F5                C5       G5       A5
e|-------- -------- -------- --------|-------- -------- -------- --------|
B|-----------------------------------|-----------------------------------|
G|------------------5----------------|2---2--------2----5---2------2-----|
D|3----3---5--------5--------5-------|2---2------2---2--5---2----5-2-----|
A|3----3---3---0-2--3--------5-------|0---0----3--------0---0----0-0-----|
E|1----1---1-----------------3-------|-----------------------------------|
       Lawdy   mama     light    my fuse
e|-------- -------- -------- --------|-------- ----5--- ----5--- --5-----|
B|---------------------------8-------|-----------5---5--8---5----8-5-----|
G|---------5-7-5----5--------7-------|-------/-6-------------------------|
D|7--------------7--5--------5-------|7----------------------------------|
A|------------------3----------------|-----------------------------------|
E|-----------------------------------|-----------------------------------|

e|-------- -------- -------- --------|-------- -------- -------- --------|
B|-----------------------------------|-----------------------------------|
G|-----------------------------------|2---2--------2----5---2------2-----|
D|3---3----3---3----5---5----5---5---|2---2------2---2--5---2----5-2-----|
A|3---3----5---3----5---5----7---5---|0---0----3--------0---0----0-0-----|
E|1---1----1---1----3---3----3---3---|-----------------------------------|
      Rock'n'  roll     hoochie  koo
e|-------- -------- -------- --------|-------- -------- -------- --------|
B|----6----6---6--------8----8---8---|---------5--------------2-P0-------|
G|----5----5---5--------7----7---7---|----4B6------2------0H2------2P0---|
D|-----------------------------------|---------------------------------3-|
A|-----------------------------------|-----------------------------------|
E|-----------------------------------|-----------------------------------|


e|-------- -------- -------- --------|-------- -------- -------- --------|
B|-----------------------------------|-----------------------------------|
G|------------------5----------------|-----------------------------------|
D|3----3---5--------5--------5-------|7---x-x--x-x-x-x--x-x-x-x--x-------|
A|3----3---3---0-2--3--------5-------|7---x-x--x-x-x-x--x-x-x-x--x-------|
E|1----1---1-----------------3-------|5---x-x--x-x-x-x--x-x-x-x--x-5-3B4-|
       Truck on out   and spread the news                          Allright
e|-------- -------- -------- --------|-------- -------- -------- --------|
B|-----------------------------------|-----------------------------------|
G|------------------5----------------|-----------------------------------|
D|------------------5--------5-------|7----------------------------------|
A|0-----------------3--------5-------|7----------------------------7-5B6-|
E|---------------------------3-------|5----------------------------------|

  E7 (Eb7/E7...)
e|-------- -------- -------- --------|-------- -------- -------- --------|
B|-----------------------------------|-----------------------------------|
G|-----------------------------------|-----------------------------------|
D|---11H12--11H12--11H12--11H12-11H12|---11H12--11H12--11H12--11H12-11H12|
A|-----------------------------------|-----------------------------------|
E|0--------0-----0------0------0-----|0--------0-----0------0------0-----|
                                                                       I
e|-------- -------- -------- --------|-------- -------- -------- --------|
B|-----------------------------------|-----------------------------------|
G|-----------------------------------|-----------------------------------|
D|----5H6----5H6----5H6----5H6--5B---|----5H6----5H6----5B-----5-----5---|
A|7--------7-----7------7------7-----|7--------7-----7------7------7-----|
E|-----------------------------------|-----------------------------------|


  A5                C5    D5     C5
e|-------- -------- -------- --------|-------- -------- -------- --------|
B|-----------------------------------|-----------------------------------|
G|------------------5---5-7----7-5---|-----------------------------------|
D|7---7------7--7---5---5-7----7-5---|----7----7-5---------------7-\-----|
A|7---7------7--7---3---3-5----5-3---|-------------7-6--5-3------------7-|
E|5---5------5--5--------------------|-----------------------------------|
  hope
     you all
           know what
                 I'm talking about                                 The
                                                                     way she
e|-------- -------- -------- --------|-------- -------- -------- --------|
B|-----------------------------------|---8B10-B108---------------8B10----|
G|------------------5---5-7----7-5---|-------------9-8--7-5--------------|
D|7---7------7--7---5---5-7----7-5---|-----------------------------------|
A|7---7------7--7---3---3-5----5-3---|-----------------------------------|
E|5---5------5--5--------------------|-----------------------------------|

e|-------- -------- -------- --------|-------- -------- -------- --------|
B|-----------------------------------|-----------------------------------|
G|------------------5-----7------5---|-----------------------------------|
D/7---7------7------5-----7------5---|----7----7-5---------------7-\-----|
A/7---7------7------3-----5------3---|-------------7-6--5-3--------------|
E/5---5------5-----------------------|---------------------------------0-|
  wiggled
     that
       thing, it really knock me out                                Getting
e|-------- -------- -------- --------|-------- -------- -------- --------|
B|-----------------------------------|-----------------------------------|
G|------------------5---5-7----7-5---|----6----6-4---------------6-~-----|
D|----7------7--7---5---5-7----7-5---|-------------7-6--5----------------|
A|----7------7--7---3---3-5----5-3---|--------------------7--------------|
E|----5------5--5--------------------|-----------------------------------|

e|-------- -------- -------- --------|-------- -------- -------- --------|
B|-----------------------------------|-----------------------------------|
G|------------------5-----7----7-5---|-----------------------------------|
D/7---7------7------5-----7----7-5---|----7----7-5---------------7-\-----|
A/7---7------7------3-----5----5-3---|-------------7-6--5-3------------7-|
E/5---5------5-----------------------|-----------------------------------|
  high
    all
      the time,
             but if
                you're
                    not there too                                    Come
e|-------- -------- -------- --------|-------- -------- -------- --------|
B|-----------------------------------|---8B10-B108---------------8B10----|
G|------------------5---5-7----7-5---|-------------9-8--7-5--------------|
D|7---7------7--7---5---5-7----7-5---|-----------------------------------|
A|7---7------7--7---3---3-5----5-3---|-----------------------------------|
E|5---5------5--5--------------------|-----------------------------------|


e|-------- -------- -------- --------|-------- -------- -------- --------|
B|-----------------------------------|-----------------------------------|
G|------------------5-----7------5---|-----------------------------------|
D/7---7------7------5-----7------5---|----7----7-5---------------7-\-----|
A/7---7------7------3-----5------3---|-------------7-6--5-3--------------|
E/5---5------5-----------------------|---------------------------------0-|
  on a little
           closer,
               gonna
                   do it to you                                      Yeah,
e|-------- -------- -------- --------|-------- -------- -------- --------|
B|-----------------------------------|-----------------------------------|
G|------------------5---5-7----7-5---|----6----6-4---------------6-~-----|
D|----7------7--7---5---5-7----7-5---|-------------7-6--5----------------|
A|----7------7--7---3---3-5----5-3---|--------------------7--------------|
E|----5------5--5--------------------|-----------------------------------|

  F5                G5                A5
e|-------- -------- -------- --------|-------- -------- -------- --------|
B|-----------------------------------|-----------------------------------|
G|-----------------------------------|2---2--------2----5---2------2-----|
D|3---3----3---3----5---5----5---5---|2---2------2---2--5---2----5-2-----|
A|3---3----5---3----5---5----7---5---|0---0----3--------0---0----0-0-----|
E|1---1----1---1----3---3----3---3---|-----------------------------------|
      Rock'n'  roll     hoochie  koo
e|-------- -------- -------- --------|-------- -------- -------- --------|
B|----6----6---6--------8----8---8---|---------5--------------2-P0-------|
G|----5----5---5--------7----7---7---|----4B6------2------0H2------2P0---|
D|-----------------------------------|---------------------------------3-|
A|-----------------------------------|-----------------------------------|
E|-----------------------------------|-----------------------------------|


  F5                C5       G5       A5
e|-------- -------- -------- --------|-------- -------- -------- --------|
B|-----------------------------------|-----------------------------------|
G|------------------5----------------|2---2--------2----5---2------2-----|
D|3----3---5--------5--------5-------|2---2------2---2--5---2----5-2-----|
A|3----3---3---0-2--3--------5-------|0---0----3--------0---0----0-0-----|
E|1----1---1-----------------3-------|-----------------------------------|
       Lawdy   mama       light my fuse
e|-------- -------- -------- --------|-------- ----5--- ----5--- --5-----|
B|---------------------------8-------|-----------5---5--8---5----8-5-----|
G|------------------5--------7-------|-------/-6-------------------------|
D|------------------5--------5-------|7----------------------------------|
A|0-----------------3----------------|-----------------------------------|
E|-----------------------------------|-----------------------------------|

e|-------- -------- -------- --------|-------- -------- -------- --------|
B|-----------------------------------|-----------------------------------|
G|-----------------------------------|2---2--------2----5---2------2-----|
D|3---3----3---3----5---5----5---5---|2---2------2---2--5---2----5-2-----|
A|3---3----5---3----5---5----7---5---|0---0----3--------0---0----0-0-----|
E|1---1----1---1----3---3----3---3---|-----------------------------------|
      Rock'n'  roll     hoochie  koo
e|-------- -------- -------- --------|-------- 5------- -------- --------|
B|----6----6---6--------8----8---8---|-------5-----8B10------5-8-5-------|
G|----5----7---5--------7----9---7---|----7B9-------------7B9------7-5-7-|
D|-----------------------------------|-----------------------------------|
A|-----------------------------------|-----------------------------------|
E|-----------------------------------|-----------------------------------|

  F5                C5       G5       A5
e|-------- -------- -------- --------|-------- -------- -------- --------|
B|-----------------------------------|-----------------------------------|
G|------------------5----------------|-----------------------------------|
D|3----3---5--------5--------5-------|7---x-x--x-x-x-x--x-x-x-x--x-------|
A|3----3---3---0-2--3--------5-------|7---x-x--x-x-x-x--x-x-x-x--x-------|
E|1----1---1-----------------3-------|5---x-x--x-x-x-x--x-x-x-x--x-5-3B4-|
           Truck on out and  spread
                                the news
e|-------- -------- -------- --------|-------- -------- -------- --------|
B|------------------5--------3-------|5----------------------------------|
G|5------------5----5--------4-------|5----------------------------------|
D|---------5H7------5--------5-------|7----------------------------7-5B6-|
A|------------------3--------5-------|7----------------------------------|
E|---------------------------3-------|5----------------------------------|


  E7 (Eb7/E7...)
e|-------- -------- -------- --------|-------- -------- -------- --------|
B|-----------------------------------|-----------------------------------|
G|-----------------------------------|-----------------------------------|
D|---11H12--11H12--11H12--11H12-11H12|---11H12--11H12--11H12--11H12-11H12|
A|-----------------------------------|-----------------------------------|
E|0--------0-----0------0------0-----|0--------0-----0------0------0-----|
                                           Yeaaaaaaaaaaaaaaaaahhhhhhhhhhh
e|-------- -------- -------- --------|-------- -------- -------- --------|
B|-----------------------------------|-----------------------------------|
G|-----------------------------------|-------------------------------5-7-|
D|----5H6----5H6----5H6----5H6--5B6--|----5B-----5B-----5-----5----7-----|
A|7--------7-----7------7------7-----|7--------7-----7------7------------|
E|-----------------------------------|-----------------------------------|

    Solo

  A5                C5    D5     C5   A5                C5    D5     C5
e|-------- -------- -------- --------|-------- -------- -------- --------|
B|-----------------------------------|-----------------------------------|
G|------------------5-----7------5---|------------------5-----7------5---|
D|7---7------7------5-----7------5---|7---7------7------5-----7------5---|
A|7---7------7------3-----5------3---|7---7------7------3-----5------3---|
E|5---5------5-----------------------|5---5------5-----------------------|
  Hey!
e|-------- -------- -------- --------|-------- -------- -------- --------|
B|-----------------------------------|-----------------------------85---5|
G7B9-9-9-9-9R8-8-8--7-7-5----75--5---|--------------------------------8--|
D|------------------------7----7---75|------7----5-----------------------|
A|-----------------------------------|7-5/7----7---7-6--5-3-5-3--5-------|
E|-----------------------------------|-----------------------------------|

e|-------- -------- -------- --------|-------- -------- -------- --------|
B|-----------------------------------|-----------------------------------|
G|------------------5-----7------5---|------------------5-----7------5---|
D|7---7------7------5-----7------5---|7---7------7------5-----7------5---|
A|7---7------7------3-----5------3---|7---7------7------3-----5------3---|
E|5---5------5-----------------------|5---5------5-----------------------|

e|----5--- -------- 5-----85 --5-85--|5------- 8-910-8B9-------- ----12----|
B|--5---5--8B10-------8-5----8-----8-|--8B10-~----------------10-12B14-14--|R
G7B9---------------------------------|--------------------9-11-------------|
D|-----------------------------------|-------------------------------------|
A|-----------------------------------|-------------------------------------|
E|-----------------------------------|-------------------------------------|


e|-------- -------- -------- --------|-------- -------- -------- --------|
B|-----------------------------------|-----------------------------------|
G|------------------5-----7------5---|------------------5-----7------5---|
D|7---7------7------5-----7------5---|7---7------7------5-----7------5---|
A|7---7------7------3-----5------3---|7---7------7------3-----5------3---|
E|5---5------5-----------------------|5---5------5-----------------------|

e|-------- --14B15- 1012---- --------|---10--- --10---- 10----10 --------|
B12101210--10----------1310-121010---1010------10-----10--12B13----------|
G|------11---------------------1112B14-----12B14--12B14---------\7-5-7-5-|
D|-----------------------------------|-----------------------------------|
A|-----------------------------------|-----------------------------------|
E|-----------------------------------|-----------------------------------|


e|-------- -------- -------- --------|-------- -------- -------- --------|
B|-----------------------------------|-----------------------------------|
G|------------------5-----7------5---|------------------5-----7------5---|
D|7---7------7------5-----7------5---|7---7------7------5-----7------5---|
A|7---7------7------3-----5------3---|7---7------7------3-----5------3---|
E|5---5------5-----------------------|5---5------5-----------------------|

e|---5---- 8B10-8-5 --5----5 --5----5|858-5-5- -------- -------- --------|
B|-----8-5----------5--8B10--5--8B10-|-----8---85------------------------|
G|7B9--------------------------------|-----------8-757--5----------------|
D|-----------------------------------|-------------------75---7----------|
A|-----------------------------------|---------------------5/7--7\5-3-5-3|
E|-----------------------------------|-----------------------------------|

e|-------- -------- -------- --------|-------- -------- -------- --------|
B|-----------------------------------|-----------------------------------|
G|------------------5-----7------5---|-----------------------------------|
D|7---7------7------5-----7------5---|----7----7-5---------------7-\-----|
A|7---7------7------3-----5------3---|-------------7-6--5-3------------7-|
E|5---5------5-----------------------|-----------------------------------|
  'squitas
      start buzzin'
              'bout that
                      time of year                                   She's
e|-------- -------- -------- --------|-------- -------- -------- --------|
B|-----------------------------------|---8B10-B108---------------8B10----|
G|------------------5---5-7----7-5---|-------------9-8--7-5--------------|
D|7---7------7--7---5---5-7----7-5---|-----------------------------------|
A|7---7------7--7---3---3-5----5-3---|-----------------------------------|
E|5---5------5--5--------------------|-----------------------------------|

e|-------- -------- -------- --------|-------- -------- -------- --------|
B|-----------------------------------|-----------------------------------|
G|------------------5-----7------5---|-----------------------------------|
D/7---7------7------5-----7------5---|----7----7-5---------------7-\-----|
A/7---7------7------3-----5------3---|-------------7-6--5-3--------------|
E/5---5------5-----------------------|---------------------------------0-|
  goin'
    around back,
             said
               she'd meet me there                                  We was
e|-------- -------- -------- --------|-------- -------- -------- --------|
B|-----------------------------------|-----------------------------------|
G|------------------5---5-7----7-5---|----6----6-4---------------6-~-----|
D|----7------7--7---5---5-7----7-5---|-------------7-6--5----------------|
A|----7------7--7---3---3-5----5-3---|--------------------7--------------|
E|----5------5--5--------------------|-----------------------------------|

e|-------- -------- -------- --------|-------- -------- -------- --------|
B|-----------------------------------|-----------------------------------|
G|------------------5-----7----7-5---|-----------------------------------|
D|7---7------7------5-----7----7-5---|----7----7-5---------------7-\-----|
A|7---7------7------3-----5----5-3---|-------------7-6--5-3------------7-|
E|5---5------5-----------------------|-----------------------------------|
  ballin'
     in the grass
             growin'
               behind the barn                                       Now my
e|-------- -------- -------- --------|-------- -------- -------- --------|
B|-----------------------------------|---8B10-B108---------------8B10----|
G|------------------5---5-7----7-5---|-------------9-8--7-5--------------|
D|7---7------7--7---5---5-7----7-5---|-----------------------------------|
A|7---7------7--7---3---3-5----5-3---|-----------------------------------|
E|5---5------5--5--------------------|-----------------------------------|


e|-------- -------- -------- --------|-------- -------- -------- --------|
B|-----------------------------------|-----------------------------------|
G|------------------5-----7------5---|-----------------------------------|
D/7---7------7------5-----7------5---|----7----7-5---------------7-\-----|
A/7---7------7------3-----5------3---|-------------7-6--5-3--------------|
E/5---5------5-----------------------|---------------------------------0-|
  ears
     started
          ringin'
             like a fire alarm
e|-------- -------- -------- --------|--15B17-15B1715-- -------- 15B17---|
B|-----------------------------------|--------------17161513-~-----------|
G|------------------5---5-7----7-5---|-----------------------------------|
D|----7------7--7---5---5-7----7-5---|-----------------------------------|
A|----7------7--7---3---3-5----5-3---|-----------------------------------|
E|----5------5--5--------------------|-----------------------------------|

  F5                G5                A5
e|-------- -------- -------- --------|-------- -------- -------- --------|
B|-----------------------------------|-----------------------------------|
G|-----------------------------------|2---2--------2----5---2------2-----|
D|3---3----3---3----5---5----5---5---|2---2------2---2--5---2----5-2-----|
A|3---3----5---3----5---5----7---5---|0---0----3--------0---0----0-0-----|
E|1---1----1---1----3---3----3---3---|-----------------------------------|
      Rock'n'  roll     hoochie  koo
e|-------- -------- -------- --------|-------- -17----- --1715-- --------|
B|----6----6---6--------8----8---8---|---------17-20B22-------17-161513--|
G|----5----7---5--------7----9---7---|--/-18---------------------------14|
D|-----------------------------------|-----------------------------------|
A|-----------------------------------|-----------------------------------|
E|-----------------------------------|-----------------------------------|

  F                 C5       G5       A5
e|-------- -------- -------- --------|-------- -------- -------- --------|
B|-----------------------------------|-----------------------------------|
G|------------------5----------------|2---2--------2----5---2------2-----|
D|3----3---5--------5--------5-------|2---2------2---2--5---2----5-2-----|
A|3----3---3---0-2--3--------5-------|0---0----3--------0---0----0-0-----|
E|1----1---1-----------------3-------|-----------------------------------|
           Lawdy mama        light
                                my fuse
e|-------- -------- -------- --------|-------- ----5--- 8---5--- --5-----|
B|---------13----------------8-------|-----------5---5--8---5----8-5-----|
G|12H14-------------5--------7-------|-------/-6-------------------------|
D|------------------5--------5-------|7----------------------------------|
A|------------------3----------------|-----------------------------------|
E|-----------------------------------|-----------------------------------|

e|-------- -------- -------- --------|-------- -------- -------- --------|
B|-----------------------------------|-----------------------------------|
G|-----------------------------------|2---2--------2----5---2------2-----|
D|3---3----3---3----5---5----5---5---|2---2------2---2--5---2----5-2-----|
A|3---3----5---3----5---5----7---5---|0---0----3--------0---0----0-0-----|
E|1---1----1---1----3---3----3---3---|-----------------------------------|
      Rock'n'  roll     hoochie  koo
e|-------- -------- -------- --------|-------- -------- -------- --------|
B|----6----6---6--------8----8---8---|---------8---8-~---10-8------------|
G|----5----5---5--------7----7---7---|----7/9----9------------9--8-7-5-7-|
D|-----------------------------------|-----------------------------------|
A|-----------------------------------|-----------------------------------|
E|-----------------------------------|-----------------------------------|


e|-------- -------- -------- --------|-------- -------- -------- --------|
B|-----------------------------------|-----------------------------------|
G|------------------5----------------|-----------------------------------|
D|3----3---5--------5--------5-------|7---x-x--x-x-x-x--x-x-x-x-/10\-----|
A|3----3---3---0-2--3--------5-------|7---x-x--x-x-x-x--x-x-x-x-/10\-----|
E|1----1---1-----------------3-------|5---x-x--x-x-x-x--x-x-x-x-/10\-----|
           Truck on out and spread
                               the news
e|-------- -------- -------- --------|-------- -------- -------- --------|
B|-----------------------------------|-----------------------------------|
G|5B------/12-------5----------------|-----------------------------------|
D|------------------5--------5-------|7------------------------------7---|
A|------------------3--------5-------|7------------------------------7---|
E|---------------------------3-------|5------------------------------5---|

e|-------- -------- -------- --------|-------- -------- -------- --------|
B|-----------------------------------|-----------------------------------|
G|-----------------------------------|2---2--------2----5---2------2-----|
D|3---3----3---3----5---5----5---5---|2---2------2---2--5---2----5-2-----|
A|3---3----5---3----5---5----7---5---|0---0----3--------0---0----0-0-----|
E|1---1----1---1----3---3----3---3---|-----------------------------------|
      Rock'n'  roll            hoochie  koo
e|-------- -------- -------- --------|------0- 5-----8- 5------- ----------|
B|----6----6---6--------8----8---8---|--/-5------5-8-----------------------|
G|----5----7---5--------7----9---7---|------------------------9\75-7B8R7P5-|
D|-----------------------------------|-------------------------------------|
A|-----------------------------------|-------------------------------------|
E|-----------------------------------|-------------------------------------|

e|-------- -------- -------- --------|-------- -------- -------- --------|
B|-----------------------------------|-----------------------------------|
G|------------------5----------------|2---2--------2----5---2------2-----|
D|3----3---5--------5--------5-------|2---2------2---2--5---2----5-2-----|
A|3----3---3---0-2--3--------5-------|0---0----3--------0---0----0-0-----|
E|1----1---1-----------------3-------|-----------------------------------|
           Lawdy mama        light
                                my fuse
e|-------- -------- -------- --------|-------- ----5--- 8---5--- --------|
B|-----------------------------------|-----------5---5--8---5------------|
G|---------5H7P5----5----------------|-------/-6-----------------7B87-5--|
D|7-----------------5--------5-------|7---------------------------------7|
A|------------------3--------5-------|-----------------------------------|
E|---------------------------3-------|-----------------------------------|

e|-------- -------- -------- --------|-------- -------- -------- --------|
B|-----------------------------------|-----------------------------------|
G|-----------------------------------|2---2--------2----5---2------2-----|
D|3---3----3---3----5---5----5---5---|2---2------2---2--5---2----5-2-----|
A|3---3----5---3----5---5----7---5---|0---0----3--------0---0----0-0-----|
E|1---1----1---1----3---3----3---3---|-----------------------------------|
      Rock'n'  roll            hoochie  koo
e|-------- -------- -------- --------|-------- ----5--- 8B9-5--- --------|
B|-----------------------------------|-----------5---5-----------8B10----|
G|-----------------------------------|---------6-------------------------|
D|5H7-~-----------------5-7------5---|7----------------------------------|
A|------------------5H7--------------|-----------------------------------|
E|-----------------------------------|-----------------------------------|

e|-------- -------- -------- --------|-------- -------- -------- --------|
B|-----------------------------------|-----------------------------------|
G|------------------5----------------|2---2--------2----5---2------2-----|
D|3----3---5--------5--------5-------|2---2------2---2--5---2----5-2-----|
A|3----3---3---0-2--3--------5-------|0---0----3--------0---0----0-0-----|
E|1----1---1-----------------3-------|-----------------------------------|
             Truck on out and spread
                               the news
e|-------- -------- -------- --------|-------- ----5--- 8---5--- --5-----|
B|-----------------------------------|-----------5---5--8---5----8-5-----|
G|------------------5----------------|-------/-6-------------------------|
D|---------7--------5--------5-------|7----------------------------------|
A|---------7--------3--------5-------|-----------------------------------|
E|---------5-----------------3-------|-----------------------------------|

e|-------- -------- -------- --------|-------- -------- -------- --------|
B|-----------------------------------|-----------------------------------|
G|------------------5----------------|2---2--------2----5---2------2-----|
D|3----3---5--------5--------5-------|2---2------2---2--5---2----5-2-----|
A|3----3---3---0-2--3--------5-------|0---0----3--------0---0----0-0-----|
E|1----1---1-----------------3-------|-----------------------------------|
           Done got tired of payin' dues
e|-------- -------- -------- --------|-------- ----5--- 8---5--- --5-----|
B|6---6----6---6-------------5---3---|-----------5---5--8---5----8-5-----|
G|5---5----7---5-------------5---4---|-------/-6-------------------------|
D|---------------------------5---5---|----7------------------------------|
A|-----------------------------------|-----------------------------------|
E|-----------------------------------|-----------------------------------|

e|-------- -------- -------- --------|-------- -------- -------- --------|
B|-----------------------------------|-----------------------------------|
G|------------------5----------------|2---2--------2----5---2------2-----|
D|3----3---5--------5--------5-------|2---2------2---2--5---2----5-2-----|
A|3----3---3---0-2--3--------5-------|0---0----3--------0---0----0-0-----|
E|1----1---1-----------------3-------|-----------------------------------|
      Said goodbye      to all  my blues
e|-------- -------- -------- --------|-------- ----5--- 8---5--- --5-----|
B|6---6----6---6---------------------|-----------5---5--8---5----8-5-----|
G|5---5----7---5----5----------------|-------/-6-------------------------|
D|------------------5--------5-------|7----------------------------------|
A|------------------3--------5-------|-----------------------------------|
E|---------------------------3-------|-----------------------------------|

                                                       (.

e|-------- -------- -------- --------|-------- -------- -------- ---------------|
B|-----------------------------------|------------------------------------------|
G|-----------------------------------|------------------------------------------|
D|3-----------------5----------------|------------------7--------7-7-7-7-7-7-7-7|
A|3-----------------5----------------|------------------7--------7-7-7-7-7-7-7-7|
E|1-----------------3----------------|------------------5--------5-5-5-5-5-5-5-5|
         Lawdy mama        light
                                my fuse
e|-------- -------- -------- --------|-------- -------- -------- --------|
B|-----------------------------------|-----------------------------------|
G|-----------------------------------|------------------0H2P0H2P0H2P0----|
D|3-----------------5----------------|-------------------------------210-|
A|3-----------------5----------------|---------------------------0------3|
E|1-----------------3----------------|-----------------------------------|


e|-----------------------------------------------------------------------|-----------------------------------|
B|-----------------------------------------------------------------------|-----------------------------------|
G|-----------------------------------------------------------------------|-----------------------------------|
D|-7-7-7-7-7-7-7-7-7-7-7-7-7-7-7-7-7-7-7-7-7-7-7-7-7-7-7-7-7-7-7-7-7-7-7-|-----------------------------------|
A|-7-7-7-7-7-7-7-7-7-7-7-7-7-7-7-7-7-7-7-7-7-7-7-7-7-7-7-7-7-7-7-7-7-7-7-|-----------------------------------|
E|-5-5-5-5-5-5-5-5-5-5-5-5-5-5-5-5-5-5-5-5-5-5-5-5-5-5-5-5-5-5-5-5-5-5-5-|-----------------------------------|

e|-------- -------- -------- --------|-------- -------- -------- --------|
B|---------1H2P1H2P1H2P1H2P1H2P1H2P1H2-----------------------------------|
G|20---------------------------------|-----------------------------------|
D|--210------------------------------|-----------------------------------|
A|-----30-----------0----------------|-----------------------------------|
E|-----------------------------------|-----------------------------------|



   When playing it on my own at home I've always used the following:

                                  .......

e|-------- -------- -------- --------|-------- -------- -------- --------|
B|-----------------------------------|-----------------------------------|
G|------------------5----------------|-----------------------------------|
D|3----3---5--------5--------5-------|7---x-x--x-x-x-x--x-x-x-x--x-------|
A|3----3---3---0-2--3--------5-------|7---x-x--x-x-x-x--x-x-x-x--x-------|
E|1----1---1-----------------3-------|5---x-x--x-x-x-x--x-x-x-x--x-5-3B4-|


e|-------- -------- -------- --------|-------- -------- -------- --------|
B|-----------------------------------|-----------------------------------|
G|----6/7----6/7----6/7----6/7---6/7-|----6/7----6/7---6/7----6/7----6/7-|
D|----5/6----5/6----5/6----5/6---5/6-|----5/6----5/6---5/6----5/6----5/6-|
A|-----------------------------------|-----------------------------------|
E|0--------0-----0------0------0-----|0--------0-----0------0------0-----|

   And also:

e|-------- -------- -------- --------|-------- -------- -------- --------|
B|-----------------------------------|----2----2-0-------------1/2-------|
G|------------------5-----7------5---|----2----2-0-2-1--0------1/2-------|
D|7---7------7------5-----7------5---|-------------2-1--0-2--------------|
A|7---7------7------3-----5------3---|--------------------3--------------|
E15---5------5-----------------------|-----------------------------------| 
 
************************************

| x  Mute note
| /  Slide up
| \  Slide down
| ~  Vibrato
| P  Pull-off
| .  Play note like a dot in standard notation
| ^  Ties two notes together
| (. Pause

************************************
Suggest correction
What's this?
You can suggest a correction to this tab. Community and Mods will review your correction and vote to approve or reject it.
comments
print report bad tab
2 comments total.
+1 reply
68lpjr 103 wrote on October 21 2009, 08:27 pm

PJVILL, you are a master. I've seen (& played) you're other tabs, mainly the coop, and they're always dead on. Keep up the good work my brother

+1 reply
68lpjr 103 wrote on October 21 2009, 08:42 pm

oh yeah, how could I forget The Beatles tabs. I don't even look at any other ones.

guest
You may want to rate the tab now too:
select rating
Please do not post tabs as comments. Select "correction" instead!