Oops, an error
Loading. Please wait.

A Horrific Arpeggio Study tab

196 views 15 this week
1 commentread comment
1 2 3 4 5
x 3
add to favorites
×
Save as Personal and add changes to this tab that will be seen only by you. Learn more ›
×
You can save this tab as Personal to edit and correct it or add notes. All changes will be seen only by you. Learn more »
launch autoscroll
font size
0
reset
how to read this tab
guitar tuner
edit
Autoscroll
slow
fast
+/-
esc
set tempo
stop
About this tab version
Original tab, notation straight from the video so should all be correct. Was this info helpful? Yes No
This is A (an) Horrific Arpeggio Study by Rick Graham.  
Good luck and apologies for the pain.

[A Horrific Arpeggio Study]
e|-----12--12------------12--12------------10--10------------10--10--------|
B|*--13--16--13--------13--16--13--------13--14--13--------13--14--13------|
G|-14----------14-12-14----------14-11-14----------14-11-14----------14-11-|
D|*------------------------------------------------------------------------|
A|-------------------------------------------------------------------------|
E|-------------------------------------------------------------------------|

e|-----10--10------------10--10------------10--10------------10--10-------|
B|---12--14--12--------12--14--12--------12--13--12--------12--13--12-----|
G|-14----------14-11-14----------14-10-13----------13-10-13----------13-9-|
D|------------------------------------------------------------------------|
A|------------------------------------------------------------------------|
E|------------------------------------------------------------------------|

e|-----8---8------------8---8------------8----8-----------8---8--------|
B|---10--12--10-------10--12--10-------10--12--10-------10--12--10-----|
G|-12----------12-9-12----------12-8-12----------12-8-12----------12-7-|
D|---------------------------------------------------------------------|
A|---------------------------------------------------------------------|
E|---------------------------------------------------------------------|

e|-----7---7-----------7---7-----------6---6-----------6---6-------|
B|---8---10--8-------8---10--8-------8---9---8-------8---9---8-----|
G|-9-----------9-7-9-----------9-6-9-----------9-6-9-----------9-5-|
D|-----------------------------------------------------------------|
A|-----------------------------------------------------------------|
E|-----------------------------------------------------------------|

e|-----5---5-----------5---5-----------4-7-4-----------------------|
B|---6---8---6-------6---8---6-------5-------5---------------------|
G|-7-----------7-5-7-----------7-4-7-----------7-4-----------------|
D|-------------------------------------------------6---------------|
A|---------------------------------------------------7-5-----------|
E|-------------------------------------------------------7-5-4-5-7-|

[Ending 1, the hard one]
e|-------------------------------------12--17--12-17-12-15-17-15-12---------|
B|---------------------------------13----13--13--------------------15-13---*|
G|---------------------9---14--9-14--14---------------------------------12--|
D|-----------------10----10--10--------------------------------------------*|
A|-----7---12--7-12--12-----------------------------------------------------|
E|-8-----8---8--------------------------------------------------------------|

[Ending 2, the not so hard one]
e|---------------------------------------------------------------------------|
B|---------------------------------------------------------------------------|
G|---------------------------------------------------------------------------|
D|---------------------------------------------------------------------------|
A|---------------------------------------------------------------------------|
E|-5-------------------------------------------------------------------------|


************************************

| *  Natural harmonic

************************************

            
            
Suggest correction
Creating personal tab
Creating personal tab
You can edit any tab online and save it as your Personal.

You can edit, replace or remove any tab part or add personal notes – all changes will be seen only by you.

Personal tabs can be accessed anytime from any device, even offline.
Learn more »
Give kudos to tab author, rate the tab!
1 2 3 4 5
comments
print report bad tab
1 comment total.
0 reply
cdamico97 19 Jul 14, 2017 10:17 AM

great tab man! Thanks

guest
You may want to rate the tab now too:
select rating
Wanna post a correction for this tab? Suggest correction