Oops, an error
Loading. Please wait.

Pawn Stars Theme Tab

118 views 9 this week
no commentswrite comment
1 2 3 4 5
1 last vote to show rating
add to favorites
launch autoscroll
font size
0
reset
how to read this tab
guitar tuner
Autoscroll
slow
fast
+/-
esc
set tempo
stop
Help us to improve Ultimate-Guitar.com Take our survey!
×
Author
About this tab version
I couldn't find any tabs on this, so the next best thing was to create my own. Was this info helpful? Yes No
[Intro]

e|---------------------------------------------------------------------------|
B|----------------------------------------------------------13---11----------|
G|---------3-----------------------------------------------------------------|
D|5--------3---------------3--3--3--3----------------------------------------|
A|5--------1---------------3--3--3--3----------------------------------------|
E|3------------------------1--1--1--1----------------------------------------|

e|---------------------------------------------------------------------------|
B|-------------------------8----10----11-------------------------------------|
G|-------------------------b11--b13---b14------------------------------------|
D|5--------3-----------------------------------------------------------------|
A|5--------3-----------------------------------------------------------------|
E|3--------1-----------------------------------------------------------------|


e|---------------------------------------------------------------------------|
B|---------------------------------------------------------------------------|
G|3--------------------------3-------------5------3--------------------------|
D|3-----3--------------------3------3------5------3--------------------------|
A|1-----3--------------------1------3------3------1--------------------------|
E|------1---------------------------1----------------------------------------|

e|---------------------------------------------------------------------------|
B|---------------------------------------------------------------------------|
G|3--------------------------3-----------------------------------------------|
D|3-----3--------------------3------3------5---------------------------------|
A|1-----3--------------------1------3------5---------------------------------|
E|------1---------------------------1------3---------------------------------|


Lyrics:

I'm Rick Harrison, and this is my pawn shop
I work here with my old man, and my son, big hoss
Everything in here has a story...and a price
One thing I've learned after 21 years...you never know what is gonna come through that door


************************************

| b  Bend

************************************
Suggest correction
Give kudos to tab author, rate the tab!
1 2 3 4 5
comments
print report bad tab
guest
You may want to rate the tab now too:
select rating
Wanna post a correction for this tab? Suggest correction