Oops, an error
Loading. Please wait.

Bustin Out On The Funk Bass Tab

5,027 views 3 this week
1 commentread comment
1 2 3 4 5
x 3
add to favorites
launch autoscroll
font size
0
reset
guitar tuner
Autoscroll
slow
fast
+/-
esc
set tempo
stop
Help us to improve Ultimate-Guitar.com Take our survey!
×
Rick James- Bustin' Out (On the funk)
So this is basically the whole song except for the solo.. just play this over and over again.

g---------------------------------------------------------------|
d---------------6-6----------------------------6-6--------------|
a-----------4-4-----4-4-6------------------4-4-----4-4-6--------|
e---/5--5-5-------------------2--3--4--5-5----------------------|

Tabbed by Donavan
By the way Im better than kolby and Hi Macky!
Suggest correction
Give kudos to tab author, rate the tab!
1 2 3 4 5
comments
print report bad tab
1 comment total.
+1 reply
LazorFace 30 Jul 08, 2013 08:52 AM

I changed a C# (4) into a A (0). And i think that 2--3--4-- should only be played every other time.
The rest seems good.


g---------------------------------------------------------------|
d---------------6-6----------------------------6-6--------------|
a-----------4-4-----4-0-6------------------4-4-----4-4-6--------|
e---/5--5-5-----------^-------2--3--4--5-5----------------------|
^

guest
You may want to rate the tab now too:
select rating
Wanna post a correction for this tab? Suggest correction