Oops, an error
Loading. Please wait.

Mamma Jamma Bass

1,135 views 1 this week
no commentswrite comment
1 2 3 4 5
3 more votes to show rating
add to favorites
launch autoscroll
font size
0
reset
guitar tuner
×
Best way to learn
"Mamma Jamma"
Autoscroll
slow
fast
+/-
esc
set tempo
stop
Author
intro
0-2-0-----------]
------2-0-2-0---]
--------------2-]
----------------]

repeats through the song
----------|-----------|------------|-----------|
----------|-0-00-2-2--|------------|-----------|
0-0-2-2-3-|----------0|-------0-0-2|-3-33-3-2--|
----------|-----------|-3-33-------|-----------|
Suggest correction
Give kudos to tab author, rate the tab!
1 2 3 4 5
comments
print report bad tab
guest
You may want to rate the tab now too:
select rating
Wanna post a correction for this tab? Suggest correction