Oops, an error
Loading. Please wait.

Heaven Knows Tab

version 3
version 3

Interactive

4,690 views 1 this week
no commentswrite comment
1 2 3 4 5
please rate
add to favorites
launch autoscroll
font size
0
reset
how to read this tab
guitar tuner
Autoscroll
slow
fast
+/-
esc
set tempo
stop
Help us to improve Ultimate-Guitar.com Take our survey!
×
Difficulty
intermediate
Tabbed by: NighTWoLF_mJ "MerJohn" from CooLWaR "Jesson"
Artist: Rick Price
Song Title: Heaven Knows

Hi sa KJ'JAMELS, TERIYAKI BOYS, SUDOKU WIZARDS at sa IV-COurage batch '08...
for comments and suggestions e-mail me nightvvolf_09@yahoo.com..
tnx and enjoy!

SHe's always on my mind...
|-----------------------------------------------9---------------|
|--5-5-4-2-4-0-0-0-5-5-7-5-5-5-10-9-7-7-9-9-9-9---5-5-4-5-2-0---|
|-------------------------------------------------------------2-|
|---------------------------------------------------------------|
|---------------------------------------------------------------|
|---------------------------------------------------------------|
And though she's so far away...
|-----------------------------------------------9---------------|
|--5-5-4-2-4-0-0-0-5-5-7-5-5-5-10-9-7-7-9-9-9-9---5-5-4-5-2-0---|
|-------------------------------------------------------------2-|
|---------------------------------------------------------------|
|---------------------------------------------------------------|
|---------------------------------------------------------------|
So tell me where do i start...
|-------------------------------------------------|
|--0-5-5-5-4-5-5-4-5-9-5-5-7-5-9-10-9------10/12--|
|-------------------------------------11-9--------|
|-------------------------------------------------|
|-------------------------------------------------|
|-------------------------------------------------|

Chorus:
And maybe my love will comeback someday...
|-----------------------------|----------12-11----|
|--0-0-12-12-12-12-10-9-7-9-7-|--9-10-12-------12-|
|-----------------------------|-------------------|
|-----------------------------|-------------------|
|-----------------------------|-------------------|
|-----------------------------|-------------------|
and maybe our hearts will find away...
|-----------------------------|--12-11-9-7-7-|
|--0-0-12-12-12-12-10-9-7-9-7-|--------------|
|-----------------------------|--------------|
|-----------------------------|--------------|
|-----------------------------|--------------|
|-----------------------------|--------------|
And all I can do is hope and pray...
|------------------------------------------|
|-----9----------10/12--10-------0-0-0-7-5-|
|--11---9-9-9-11-----------11-11-----------|
|------------------------------------------|
|------------------------------------------|
|------------------------------------------|

Verse 2:
My friends keep tellin' me...
|-----------------------------------------------9---------------|
|--5-5-4-2-4-0-0-0-5-5-7-5-5-5-10-9-7-7-9-9-9-9---5-5-4-5-2-0---|
|-------------------------------------------------------------2-|
|---------------------------------------------------------------|
|---------------------------------------------------------------|
|---------------------------------------------------------------|
But tell me where do I start...
|-------------------------------------------------|
|--0-5-5-5-4-5-5-4-5-9-5-5-7-5-9-10-9------10/12--|
|-------------------------------------11-9--------|
|-------------------------------------------------|
|-------------------------------------------------|
|-------------------------------------------------|

                    (REPEAT CHORUS)

Why I live in despair...
|-------------------------------------------------|
|--5-5-7-5-5-7-5-9-10-9-------------10/12--10-----|
|-----------------------11-11-9-8-9-----------9-9-|
|-------------------------------------------------|
|-------------------------------------------------|
|-------------------------------------------------|
And all the time I act so brave...
|-----------------------12-11--------------------------|
|-----------------------------12-12-9-10-9------10/12--|
|--9-9-9-9-11-13-13-9----------------------11-9--------|
|------------------------------------------------------|
|------------------------------------------------------|
|------------------------------------------------------|

                      (REPEAT CHORUS)

'coz heaven knows...
|------------|
|--0-0-0-7-5-|
|------------|
|------------|
|------------|
|------------|
comments
We did not receive enough feedback on this tab! Please rate:
print report bad tab
1 2 3 4 5
I want to post or [tab]
guest
You may want to rate the tab now too:
select rating
Please do not post tabs as comments. Select "correction" instead!