Oops, an error
Loading. Please wait.

Heaven Knows tab

version 5
version 5

Interactive

10,919 views 27 this week
no commentswrite comment
1 2 3 4 5
2 more votes to show rating
add to favorites
×
Save as Personal and add changes to this tab that will be seen only by you. Learn more ›
×
You can save this tab as Personal to edit and correct it or add notes. All changes will be seen only by you. Learn more »
launch autoscroll
font size
0
reset
how to read this tab
guitar tuner
edit
Autoscroll
slow
fast
+/-
esc
set tempo
stop
Difficulty
intermediate
Version from 6stringer on youtube

This is only part of the whole tab
To get the complete tab just add iancj04@yahoo.com in your friendster account then I 
send it to you directly to your email address

Intro:
|------3-----------0---1-0--------------3---------3--|
|--3----3-----3------1-----1--------3-----3-----3-3--|
|--5-5------5----------------0------5-5-------5---5--|
|--5--------------------------------5-------5-----5--|
|--3------3--------3------------0---3-------------5--|
|-------------------------------------------------3--|

Verse I
|----------------------------0--|
|------------------0---------3--|
|--5-5-----4------------0----0--|
|---------------7---------2--2--|
|---------------------3------3--|
|-------------------------------|
  She’s always on my   mind

|-----------------------0-------|
|-11--------1-1h3-1-------------|
|---------2---------------------|
|-------3------------3----------|
|-------------------------------|
|-------------------------------|
  From the time I wake up

|---------1-----0---------------|
|--1----------------3---------3-|
|---2-----------------------0---|
|-------------------------------|
|-------------2-----------2-----|
|---------3-------------1-------|
  Till I close my eyes

|--0--0----------0--5-----------|
|--3-----------3-------1--------|
|--0----------------------------|
|--0----------------------------|
|--2----------------------------|
|--0-----------------4----------|
  She is everywhere I go


|--------------0--------------------1------1-------|
|-------1------0--1---------------1---1----1-------|
|-----2--------------2----------2-------2--2-------|
|---2-------------------------3--------------------|
|-0-------------------------3--------------3-------|
|--------------3----------1----------------3-------|
        She’s all I know

|---------------------------0----------------------|
|--1----1-----0--------0----3---3------------------|
|------------------2----0---0----(0)---------------|
|-------------------------2-2----------------------|
|--------------------3------3-3--------------------|
|--------------------------------------------------|
  And though she’s so far away

|--------------------------------0-1-0--------------|
|----------111h3-1---------1-----------3--------3---|
|----2-------------------2--------------------0-----|
|-3--------------------3----------------------------|
|-------------------------------------------2-------|
|--------------------------------3--------1---------|
  It just keep getting stronger everyday


|--0-0---------0---5-----------|
|--3----------------------1----|
|--0---------------------------|
|--0---------------------------|
|--2---------------------------|
|--0----------------4----------|
  And even though she’s gone

|-------------------------------------1----|
|-----0h1p0--0----0-0h1p0-----------1------|
|--------------------------2------2--------|
|---2---------------------------3----------|
|-0---------------------------3------------|
|---------------3--------------------------|
      I’m still    holdin on

Pre Chorus
|------------------------------------|
|------0---1----1---0--1---1---------|
|---2----------------------2---------|
|--------------------------2---------|
|---------------0----------0---------|
|------------------------------------|
   So tell me where do I start

|------------------------------------|
|----0--1----1---0--1—1h3-1----------|
|-----------------------------0------|
|-(2)-----------------------2--------|
|------------------------------------|
|------------3-----------------------|
    Coz it breakin my heart

|---0----1---0-----------3-----------|
|---------------3----1---------------|
|----------------2----0--------------|
|---3--------------------------------|
|------------------------------------|
|------------------------------------|
  Don’t want to let her go . . .

|-------3------1---------------------|
|-----4--------3---------------------|
|---5----------3---------------------|
|-6----------3-----------------------|
|----------1-----0-------------------|

Bitin ka ba!!!!
Just add iancj04@yahoo.com
Tapus leave a comment before and after I give the tab
Okie!!! No doubt bibigay ko sau un!!!

            
            
Suggest correction
Creating personal tab
Creating personal tab
You can edit any tab online and save it as your Personal.

You can edit, replace or remove any tab part or add personal notes – all changes will be seen only by you.

Personal tabs can be accessed anytime from any device, even offline.
Learn more »
Give kudos to tab author, rate the tab!
1 2 3 4 5
comments
print report bad tab
guest
Wanna post a correction for this tab? Suggest correction