Oops, an error
Loading. Please wait.

Heaven Knows Tab

version 6
version 6

Interactive

11,228 views 57 this week
no commentswrite comment
1 2 3 4 5
3 more votes to show rating
add to favorites
launch autoscroll
font size
0
reset
how to read this tab
guitar tuner
Autoscroll
slow
fast
+/-
esc
set tempo
stop
Help us to improve Ultimate-Guitar.com Take our survey!
×
Author
Difficulty
intermediate
Artist: Rick Price
Song: Heaven Knows
(www.facebook.com/imwndrstrck)
Tuning: Standard 

[Intro]
e|------3----|-0---1-0------|-----3-----3--|
B|--3-----3--|-1-------1----|-3-----3---3--|
G|--5-5------|---0-------0--|-5-5-------5--|
D|-----------|--------------|-----------5--|
A|--3--------|--------------|-3---------5--|
E|-----------|-1------------|-----------3--|

[Verse 1]
e|-------------------------------|-------------------|-1---0------------|
B|--1-1-0---0---------------1----|-1---1-1h3-1-----0-|-------3-------0--|
G|--------2-----0h2-0-----0---0--|-0-0-----------0---|---0---------0----|
D|----------------------2--------|-------------0-----|-----------0------|
A|------------3-------3----------|-------------------|------------------|
E|-------------------------------|-1-----------------|-3-------1--------|

e|--0---0-3s5-------------------------------3--|
B|--0---------1-------1-0-1---------------0----|
G|----0-------------2---------0h2-0-----0------|
D|----------------2-------------------0--------|
A|--2-----------0-------------------0----------|
E|--------------------------1---------------3--|

e|--------------------------------|---------------------|-1-1-0------------|
B|--1-1-0---0---------------1-----|-1---1-1h3-1-----0---|-------3-------0--|
G|--------2-----0h2-0-----0---0---|-0-0-----------0-----|-------------0----|
D|----------------------2---------|-------------0-------|-----------0------|
A|------------3-------3-----------|---------------------|------------------|
E|--------------------------------|-1-------------------|-3-------1--------|

e|--0-0---0-3s5------------------------------|
B|--0-----------1-----1-0---0-1--------------|
G|------0-----------------------2---2--------|
D|------------------2-----------------3---3--|
A|--2-------------0--------------------------|
E|------------------------3-------1-----1----|

e|------------------------------------|-0-1-0-------3-------3----------|
B|--0-1-1-0-1-1-0-1-1-0-1-1h3-1-----1-|-1-----3---1-------4---------3--|
G|------2-----2-----0-------------0---|-----------------5---------3----|
D|------------------------------2-----|---------------6---------3------|
A|------0-----0-----3-----3-----------|-----------------------1--------|
E|------------------------------------|-1-------1----------------------|

[Chorus]
e|--3-3-3-3---1-0-------0-----------|-0h1-3-3s8-7-3h5-3----------------|
B|----------------3---1---3---1-0---|-----------------------1-1-0------|
G|--------------------------------0-|---------------------0-------2-0--|
D|----------------------------------|-------------------0--------------|
A|--3-------------------------------|-3--------------------------------|
E|----------3-------1-------3-------|-----------------1-------3--------|

e|--3-3-3-3-1--0--------0-----------|-8-7-5---3-3------------------|
B|----------------3---1---3---1-0---|-------------------1-1-0------|
G|--------------------------------0-|-----------------0-------2-0--|
D|------------0---------------------|---------------0--------------|
A|--3-------------------------------|------------------------------|
E|----------3-------1-------3-------|-8-----3-----1-------3--------|

e|--0---------3---1-0-----------3--------------|
B|----1-1-1-3---------3-3-----0---------1h3-1--|
G|--------------------------0-----0-0-0--------|
D|------------------------0--------------------|
A|--0-----0------------------------------------|
E|--------------1-------3-------3--------------|

[Interlude]
e|------3---------|-0---1-0---------|-----3---------3--|
B|--3-----3-------|-1-------1-------|-3-----3-------3--|
G|--5-5-----5---5-|---0-------0-----|-5-5-----5-----5--|
D|------------5---|-----------------|-----------5---5--|
A|--3-------------|-----------------|-3-------------5--|
E|----------------|-1---------------|---------------3--|

[Verse 2]
e|------------------------------|---------------------|-1-0------------|
B|--1-1-0---0---------------1---|-1---1-1h3-1---------|-----3-------0--|
G|--------2-----0h2-0-----0---0-|-0-0-----------0-2-0-|-----------0----|
D|----------------------2-------|-------------0-------|---------0------|
A|------------3-------3---------|---------------------|----------------|
E|------------------------------|-1-------------------|-------1--------|

e|--0-0---0-3s5------------------------------|
B|--0-----------1-----1-0---0-1--------------|
G|------0-----------------------2---2--------|
D|------------------2-----------------3---3--|
A|--2-------------0--------------------------|
E|------------------------3-------1-----1----|

e|---------------------0-----------------|-0-1-0-----3-------3----------|
B|--0-1-1-0-1-1----0-1-1-1-0-1h3-1-------|-1-----3-1-------4---------3--|
G|------2-----2--2-------------------0---|---------------5---------3----|
D|--------------2------------------2-----|-------------6---------3------|
A|------0-----0--------3-----3-----------|---------------------1--------|
E|---------------------------------------|-1----------------------------|

[Chorus]
e|--3-3-3-3---1-0-------0-----------|-0h1-3-3s8-7-3h5-3----------------|
B|----------------3---1---3---1-0---|-----------------------1-1-0------|
G|--------------------------------0-|---------------------0-------2-0--|
D|----------------------------------|-------------------0--------------|
A|--3-------------------------------|-3--------------------------------|
E|----------3-------1-------3-------|-----------------1-------3--------|

e|--3-3-3-3-1--0--------0-----------|-8-7-5---3-3------------------|
B|----------------3---1---3---1-0---|-------------------1-1-0------|
G|--------------------------------0-|-----------------0-------2-0--|
D|------------0---------------------|---------------0--------------|
A|--3-------------------------------|------------------------------|
E|----------3-------1-------3-------|-8-----3-----1-------3--------|

e|--0---------3---1-0-----------3--------------|
B|----1-1-1-3---------3-3-----0---------1h3-1--|
G|--------------------------0-----0-0-0--------|
D|------------------------0--------------------|
A|--0-----0------------------------------------|
E|--------------1-------3-------3--------------|

[Bridge]
e|------------------------------------0-1-0-----------3-0-----12*----------|
B|--1-----1-----0-1-3-1-0-1h3-1-----0-1-----3-3-1-0-1-----0-0---------12*--|
G|----0-----0---------------------0-------------------------------12*------|
D|--0---0-0---0-----------------0------------------------------------------|
A|-------------------------------------------------------------------------|
E|------------------0-----0-----------1-------1-------0--------------------|

e|------------0-0---8-7-0-0-|-0-1-0-----3-------3-3------------------------|
B|--0-1-1-1-3-----1---------|-------3-1-------4-----4-----------3-3--------|
G|--------------------------|---------------5---------5-------3-----3------|
D|--0-----0-----------------|-------------6-------------6---3---------3----|
A|--------------------------|-----------------------------1-------------1--|
E|------------------0-----0-|-1-----1--------------------------------------|

[Chorus]
e|--3-3-3-3---1-0-------0-----------|-0h1-3-3s8-7-3h5-3----------------|
B|----------------3---1---3---1-0---|-----------------------1-1-0------|
G|--------------------------------0-|---------------------0-------2-0--|
D|----------------------------------|-------------------0--------------|
A|--3-------------------------------|-3--------------------------------|
E|----------3-------1-------3-------|-----------------1-------3--------|

e|--3-3-3-3-1--0--------0-----------|-8-7-5---3-3------------------|
B|----------------3---1---3---1-0---|-------------------1-1-0------|
G|--------------------------------0-|-----------------0-------2-0--|
D|------------0---------------------|---------------0--------------|
A|--3-------------------------------|------------------------------|
E|----------3-------1-------3-------|-8-----3-----1-------3--------|

e|--0---------3---1-0-----------3--------------|
B|----1-1-1-3---------3-3-----0---------1h3-1--|
G|--------------------------0-----0-0-0--------|
D|------------------------0--------------------|
A|--0-----0------------------------------------|
E|--------------1-------3-------3--------------|

[Outro]
e|------3---------|-0---1-0-0-0-3s5-3-|-----3---------3-------------|-----------------0--|
B|--3-----3-------|-1-----------------|-3-----3-------3-------1h3-1-|---------3-1-3---1--|
G|--5-5-----5---5-|---0---------------|-5-5-----5-----5---0-0-------|-----0-----------0--|
D|------------5---|-------------------|-----------5---5-------------|---2---2---------2--|
A|--3-------------|-------------------|-3-------------5-------------|-3---------------3--|
E|----------------|-1-----------------|---------------3-------------|--------------------|

************************************

| h  Hammer-on
| *  Natural harmonic
| s  Slide

************************************
Suggest correction
Give kudos to tab author, rate the tab!
1 2 3 4 5
comments
print report bad tab
guest
You may want to rate the tab now too:
select rating
Wanna post a correction for this tab? Suggest correction