Oops, an error
Loading. Please wait.

I Hate Myself tab

732 views 1 this week
no commentswrite comment
1 2 3 4 5
2 more votes to show rating
add to favorites
×
Save as Personal and add changes to this tab that will be seen only by you. Learn more ›
×
You can save this tab as Personal to edit and correct it or add notes. All changes will be seen only by you. Learn more »
launch autoscroll
font size
0
reset
how to read this tab
guitar tuner
edit
Autoscroll
slow
fast
+/-
esc
set tempo
stop
I HATE MYSELF

E|---------------------------------------|
B|---------------------------------------|
G|--6-6-----------------6-6--------------|
D|--6-6-4---6-6-4-6-4---6-6-4--6-6-4-4---|
A|--4-4-4---6-6-4-6-4---4-4-4--6-6-4-4---|
E|------2---4-4-2-4-2-------2--4-4-2-2---|

E|---------------------------------------------------------------------------------|
B|---------------------------------------------------------------------------------|
G|--6-6---------------------6-6--------------6-6--------------------6-6------------|
D|--6-6-4--------6-6-4-6-4--6-6-4---6-6-4-4--6-6-4------6-6-4-6-4---6-6-4--6-6-4-4-|
A|--4-4-4--------6-6-4-6-4--4-4-4---6-6-4-4--4-4-4------6-6-4-6-4---4-4-4--6-6-4-4-|
E|------2--------4-4-2-4-2------2---4-4-2-2------2------4-4-2-4-2-------2--4-4-2-2-|
   MY SO CALLED  WITHOUT A                   EVERYBODY  AND SO DO 
   FRIENDS ALL   KISS                        THINKS     I
   QUIT          GOODBYE                     I’M 
                                             A CREEP

E|---------------------------------------------------------------------------------|
B|---------------------------------------------------------------------------------|
G|--6-6---------------------6-6----------------6-6------------------6-6------------|
D|--6-6-4--------6-6-4-6-4--6-6-4---6-6-4-4----6-6-4----6-6-4-6-4---6-6-4--6-6-4-4-|
A|--4-4-4--------6-6-4-6-4--4-4-4---6-6-4-4----4-4-4----6-6-4-6-4---4-4-4--6-6-4-4-|
E|------2--------4-4-2-4-2------2---4-4-2-2--------2----4-4-2-4-2-------2--4-4-2-2-|
  I THINK THEY   THAT I’M   YOUR    LINK IN    I CLIMB  GO AHEAD
  ALL THINK      INSANE     THE     MY CHAIN   ON YOUR  AND CRUCIFY
                            WEAK               CROSS    ME

E|------------------------------------------------------------------------------|
B|------------------------------------------------------------------------------|
G|--6-6--------------6-6----------------6-6--------------------6-6--------------|
D|--6-6-4----6-6-4---6-6-4---6-6-4-4----6-6-4----6-6-4---------6-6-4---6-6-4-4--|
A|--4-4-4----6-6-4---4-4-4---6-6-4-4----4-4-4----6-6-4---------4-4-4---6-6-4-4--|
E|------2----4-4-2-------2---4-4-2-2--------2----4-4-2-------------2---4-4-2-2--|
  I HATE             CAUSE I            I HATE   I’M A ONE MAN
  MYSELF             WANT YOU           MYSELF   WRECKING CREW

E|---------------------------------------------------------------------------------|
B|---------------------------------------------------------------------------------|
G|--6-6----------------------6-6---------------6-6------------------6-6------------|
D|--6-6-4--------6-6-4-6-4---6-6-4---6-6-4-4---6-6-4----6-6-4-6-4---6-6-4--6-6-4-4-|
A|--4-4-4--------6-6-4-6-4---4-4-4---6-6-4-4---4-4-4----6-6-4-6-4---4-4-4--6-6-4-4-|
E|------2--------4-4-2-4-2-------2---4-4-2-2-------2----4-4-2-4-2-------2--4-4-2-2-|
  YOU’RE SO BAD  I’M LIKE A                 SO LETS     AND GET EM’ 
  FOR ME         DEADMAN                    CONNECT     ALL TALKING
                 WALKING                    REAL SOON 

E|--------------------------------------------------|
B|--------------------------------------------------|
G|--6-6---------------------6-6---------------------|
D|--6-6-4------6-6-4-6-4----6-6-4-----6-6-4-4-------|
A|--4-4-4------6-6-4-6-4----4-4-4-----6-6-4-4-------|
E|------2------4-4-2-4-2--------2-----4-4-2-2-------|
  I’LL CIRCLE  AROUND YOUR  AND PROVE WITH EVERY
  THE WAGONS   BED          I’M RIGHT THING I SAID

E|------------------------------------------------------------------------------|
B|------------------------------------------------------------------------------|
G|--6-6--------------6-6----------------6-6--------------------6-6--------------|
D|--6-6-4----6-6-4---6-6-4---6-6-4-4----6-6-4----6-6-4---------6-6-4---6-6-4-4--|
A|--4-4-4----6-6-4---4-4-4---6-6-4-4----4-4-4----6-6-4---------4-4-4---6-6-4-4--|
E|------2----4-4-2-------2---4-4-2-2--------2----4-4-2-------------2---4-4-2-2--|
  I HATE             CAUSE I            I HATE   I’M A ONE MAN
  MYSELF             WANT YOU           MYSELF   WRECKING CREW

E|---------------------------------------------------------------------------|
B|---------------------------------------------------------------------------|
G|--6-6---------------6-6----------------6-6----------------6-6--------------|
D|--6-6-4-----6-6-4---6-6-4---6-6-4-4----6-6-4----6-6-4-----6-6-4---6-6-4-4--|
A|--4-4-4-----6-6-4---4-4-4---6-6-4-4----4-4-4----6-6-4-----4-4-4---6-6-4-4--|
E|------2-----4-4-2-------2---4-4-2-2--------2----4-4-2---------2---4-4-2-2--|
  DAMN THE    SCANDAL BURN ME I’M BLACK  I HATE   BUT I
  DANGER THE  TOO     DOWN    & BLUE     MYSELF   WANT YOU

E|------------------------------------------------------------------------|
B|------------------------------------------------------------------------|
G|--6------X-X-X--X-X-X--X-X-X--X-X-X--X-X-X--X-X-X--X-X-X--X-X-X--X-X-X--|
D|--6------X-X-X--X-X-X--X-X-X--X-X-X--X-X-X--X-X-X--X-X-X--X-X-X--X-X-X--|
A|--4------X-X-X--X-X-X--X-X-X--X-X-X--X-X-X--X-X-X--X-X-X--X-X-X--X-X-X--|
E|------------------------------------------------------------------------|
  I HATE                        I HATE                      I HATE
  MYSELF                        MYSELF                      MYSELF

E|---------------------------------------------|
B|---------------------------------------------|
G|--X-X-X--X-X-X--X-X-X--X-X-X--X-X-X--X-X-X---|
D|--X-X-X--X-X-X--X-X-X--X-X-X--X-X-X--X-X-X---|
A|--X-X-X--X-X-X--X-X-X--X-X-X--X-X-X--X-X-X---|
E|---------------------------------------------|
                  I HATE
                  MYSELF 

E|------------------------------------------------------------------------------|
B|------------------------------------------------------------------------------|
G|--6-6--------------6-6----------------6-6--------------------6-6--------------|
D|--6-6-4----6-6-4---6-6-4---6-6-4-4----6-6-4----6-6-4---------6-6-4---6-6-4-4--|
A|--4-4-4----6-6-4---4-4-4---6-6-4-4----4-4-4----6-6-4---------4-4-4---6-6-4-4--|
E|------2----4-4-2-------2---4-4-2-2--------2----4-4-2-------------2---4-4-2-2--|
  I HATE             CAUSE I            I HATE   I’M A ONE MAN
  MYSELF             WANT YOU           MYSELF   WRECKING CREW

E|-------------------------------------------------------------------------------|
B|-------------------------------------------------------------------------------|
G|--6-6---------------6-6-------------------6-6---------------6-6----------------|
D|--6-6-4----6-6-4----6-6-4---6-6-4-4-------6-6-4---6-6-4-----6-6-4-----6-6-4-4--|
A|--4-4-4----6-6-4----4-4-4---6-6-4-4-------4-4-4---6-6-4-----4-4-4-----6-6-4-4--|
E|------2----4-4-2--------2---4-4-2-2-----------2---4-4-2---------2-----4-4-2-2--|
  YOUR BAD   I’M BAD  MY BIG  YOU’RE BIG    I HATE  BUT I
  FOR ME     FOR YOU  BREAK   BREAK THROUGH MYSELF  WANT YOU
                      DOWN

            
            
Suggest correction
Creating personal tab
Creating personal tab
You can edit any tab online and save it as your Personal.

You can edit, replace or remove any tab part or add personal notes – all changes will be seen only by you.

Personal tabs can be accessed anytime from any device, even offline.
Learn more »
Give kudos to tab author, rate the tab!
1 2 3 4 5
comments
print report bad tab
guest
You may want to rate the tab now too:
select rating
Wanna post a correction for this tab? Suggest correction