Oops, an error
Loading. Please wait.
We have an official Jessies Girl tab made by UG professional guitarists. Check out the tab »
×

Jessies Girl tab

version 3
version 3

Whole song

Video

180,471 views 60 this week
4 commentsread comments
1 2 3 4 5
x 47
add to favorites
×
Save as Personal and add changes to this tab that will be seen only by you. Learn more ›
×
You can save this tab as Personal to edit and correct it or add notes. All changes will be seen only by you. Learn more »
launch autoscroll
font size
0
reset
how to read this tab
guitar tuner
backing track
0:00
0:00
edit
Autoscroll
slow
fast
+/-
esc
set tempo
stop
Author
Difficulty
intermediate
-----------------------------------------------------------------------------
                             JESSIE'S GIRL - Rick Springfield
-----------------------------------------------------------------------------
Tabbed by: MrBlitz                                       

Tuning: Standard                     

The numbers most likely are not spaced out right, but if you follow the song, you 
can pick it up pretty easy.


e|---------------------------|
B|---------------------------|
G|---------------------------|  x6       
D|---------------------------|
A|-5-5-------------------5-5-|
E|-----5-5-7-7---3-3-5-5-----|
pm{.........................}                                                                 

e|---------------------------|
B|---------------------------|
G|-7-7-------------------7-7-| x3         
D|-7-7-7-7-9-9---5-5-7-7-7-7-|
A|-5-5-7-7-9-9---5-5-7-7-5-5-|
E|-----5-5-7-7---3-3-5-5-----|

e|-----------------|
B|-----------------|
G|-----------------|
D|-7-7-7-7-7-7-7-7-|
A|-7-7-7-7-7-7-7-7-|
E|-5-5-5-5-5-5-5-5-|
pm{...............}

e|-----------------------|
B|-----------------------|
G|---7-7-7---------------| x2      
D|-7-7-7-7---7-9-9-7-9-7-|
A|-7-5-5-5---7-9-9-7-9-7-|
E|-5-5-5-5---5-7-7-5-7-5-|


e|---------------------|
B|---------------------|
G|-----7---------------|
D|-5-7-7---9-9-9-9/7-7-|
A|-5-7-5---9-9-9-9/7-7-|
E|-3-5-5---7-7-7-7/5-5-|


e|---------------------------|
B|---------------------------|
G|---------------------------|
D|---------------------------| x4    
A|-5-5-------------------5-5-|
E|-----5-5-7-7---3-3-5-5-----|
pm{.........................}


e|---------------------------|
B|---------------------------|
G|-7-7-------------------7-7-| x3      
D|-7-7-7-7-9-9---5-5-7-7-7-7-|
A|-5-5-7-7-9-9---5-5-7-7-5-5-|
E|-----5-5-7-7---3-3-5-5-----|


e|-----------------|
B|-----------------|
G|-----------------|
D|-7-7-7-7-7-7-7-7-|
A|-7-7-7-7-7-7-7-7-|
E|-5-5-5-5-5-5-5-5-|
pm{...............}


e|-----------------------|
B|-----------------------|
G|---7-7-7---------------| x2    
D|-7-7-7-7---7-9-9-7-9-7-|
A|-7-5-5-5---7-9-9-7-9-7-|
E|-5-5-5-5---5-7-7-5-7-5-|


e|---------------------|
B|---------------------|
G|-----7---------------|
D|-5-7-7---9-9-9-9/7-7-|
A|-5-7-5---9-9-9-9/7-7-|
E|-3-5-5---7-7-7-7/5-5-|


e|-----------------------|
B|-----------------------|
G|---7-7-7---------------| x2    
D|-7-7-7-7---7-9-9-7-9-7-|
A|-7-5-5-5---7-9-9-7-9-7-|
E|-5-5-5-5---5-7-7-5-7-5-|


e|-----------------------------------------|
B|-----------------------------------------|
G|-----7-----------7-------7---------------|
D|-5-7-7---5-5-5-7-7---5-7-7---9-9-9-9/7-7-|
A|-5-7-5---5-5-5-7-5---5-7-5---9-9-9-9/7-7-|
E|-3-5-5---3-3-3-5-5---3-5-5---7-7-7-7/5-5-|


e|-7---10---9--|
B|-8---10---10-|
G|-7---11---9--| x6        
D|-------------|
A|-------------|
E|-------------|

e|-----------------------|
B|-----------------------|
G|---4-4-4---------------| x4     
D|-4-4-4-4---4-6-6-4-6-4-|
A|-4-2-2-2---4-6-6-4-6-4-|
E|-2-2-2-2---2-4-4-2-4-2-|

e|---------------------|
B|---------------------|
G|-----7---------------|
D|-5-7-7---9-9-9-9/7-7-|
A|-5-7-5---9-9-9-9/7-7-|
E|-3-5-5---7-7-7-7/5-5-|


e|---------------------12-------------------|
B|------------------------12---15p14--15----|
G|--------------------------14------14--14/-|
D|-12-12-12-12-12-12------------------------|
A|------------------------------------------|
E|------------------------------------------|


e|-------17--------10---------10--------|
B|-17b19hold19r17------12r11r10---12r10-|
G|--------------------------------------|
D|--------------------------------------|
A|--------------------------------------|
E|--------------------------------------|


e|-/14-14-12-10------/15-14--------------|
B|--------------------------15p14h15-14/-|
G|--------------9/7----------------------|
D|---------------------------------------|
A|---------------------------------------|
E|---------------------------------------|


e|-----------9----------9--10-10-10-|
B|-----10-12---10--8/10-10-10-10-10-|
G|-/11-------------7/9--9--9--9--9--|
D|----------------------------------|
A|----------------------------------|
E|----------------------------------|


e|-----------------|
B|-----------------|
G|-----------------|
D|-7-7-7-7-7-7-7-7-|
A|-7-7-7-7-7-7-7-7-|
E|-5-5-5-5-5-5-5-5-|
pm{...............}


e|-----------------------|
B|-----------------------|
G|---7-7-7---------------| x3    
D|-7-7-7-7---7-9-9-7-9-7-|
A|-7-5-5-5---7-9-9-7-9-7-|
E|-5-5-5-5---5-7-7-5-7-5-|

e|---------------------|
B|---------------------|
G|-----7---------------|
D|-5-7-7---9-9-9-9/7-7-|
A|-5-7-5---9-9-9-9/7-7-|
E|-3-5-5---7-7-7-7/5-5-|

e|-----------------------|
B|-----------------------|
G|---7-7-7---------------| x3    
D|-7-7-7-7---7-9-9-7-9-7-|
A|-7-5-5-5---7-9-9-7-9-7-|
E|-5-5-5-5---5-7-7-5-7-5-|

e|-------------------|
B|-----------------3-|
G|---7-7-----7-----2-|
D|-7-7-7---7-7-7-5-0-|
A|-7-5-5---7-5-7-5-0-|
E|-5-5-5---5-5-5-3---|


************************************

| h       Hammer-on
| p       Pull-off
| r       Release
| b       Bend
| /       Slide up
| pm{.}   Palm mute for duration

************************************

            
            
Suggest correction
Creating personal tab
Creating personal tab
You can edit any tab online and save it as your Personal.

You can edit, replace or remove any tab part or add personal notes – all changes will be seen only by you.

Personal tabs can be accessed anytime from any device, even offline.
Learn more »
comments
print report bad tab
4 comments total. Showing first comments.
+1 reply
facemelter10 10 Dec 26, 2010 01:45 AM

hey great tab but there's a slight correction needed at the end

e|---------------------------|
B|---------------------------|
G|---------------------------| x6
D|---------------------------|
A|-5-5-------------------5-5-|
E|-----5-5-7-7---3-3-5-5-----|
pm{.........................}

e|---------------------------|
B|---------------------------|
G|-7-7-------------------7-7-| x3
D|-7-7-7-7-9-9---5-5-7-7-7-7-|
A|-5-5-7-7-9-9---5-5-7-7-5-5-|
E|-----5-5-7-7---3-3-5-5-----|

e|-----------------|
B|-----------------|
G|-----------------|
D|-7-7-7-7-7-7-7-7-|
A|-7-7-7-7-7-7-7-7-|
E|-5-5-5-5-5-5-5-5-|
pm{...............}

e|-----------------------|
B|-----------------------|
G|---7-7-7---------------| x2
D|-7-7-7-7---7-9-9-7-9-7-|
A|-7-5-5-5---7-9-9-7-9-7-|
E|-5-5-5-5---5-7-7-5-7-5-|

e|---------------------|
B|---------------------|
G|-----7---------------|
D|-5-7-7---9-9-9-9/7-7-|
A|-5-7-5---9-9-9-9/7-7-|
E|-3-5-5---7-7-7-7/5-5-|

e|---------------------------|
B|---------------------------|
G|---------------------------|
D|---------------------------| x4
A|-5-5-------------------5-5-|
E|-----5-5-7-7---3-3-5-5-----|
pm{.........................}

e|---------------------------|
B|---------------------------|
G|-7-7-------------------7-7-| x3
D|-7-7-7-7-9-9---5-5-7-7-7-7-|
A|-5-5-7-7-9-9---5-5-7-7-5-5-|
E|-----5-5-7-7---3-3-5-5-----|

e|-----------------|
B|-----------------|
G|-----------------|
D|-7-7-7-7-7-7-7-7-|
A|-7-7-7-7-7-7-7-7-|
E|-5-5-5-5-5-5-5-5-|
pm{...............}

e|-----------------------|
B|-----------------------|
G|---7-7-7---------------| x2
D|-7-7-7-7---7-9-9-7-9-7-|
A|-7-5-5-5---7-9-9-7-9-7-|
E|-5-5-5-5---5-7-7-5-7-5-|

e|---------------------|
B|---------------------|
G|-----7---------------|
D|-5-7-7---9-9-9-9/7-7-|
A|-5-7-5---9-9-9-9/7-7-|
E|-3-5-5---7-7-7-7/5-5-|

e|-----------------------|
B|-----------------------|
G|---7-7-7---------------| x2
D|-7-7-7-7---7-9-9-7-9-7-|
A|-7-5-5-5---7-9-9-7-9-7-|
E|-5-5-5-5---5-7-7-5-7-5-|

e|-----------------------------------------|
B|-----------------------------------------|
G|-----7-----------7-------7---------------|
D|-5-7-7---5-5-5-7-7---5-7-7---9-9-9-9/7-7-|
A|-5-7-5---5-5-5-7-5---5-7-5---9-9-9-9/7-7-|
E|-3-5-5---3-3-3-5-5---3-5-5---7-7-7-7/5-5-|

e|-7---10---9--|
B|-8---10---10-|
G|-7---11---9--| x6
D|-------------|
A|-------------|
E|-------------|

e|-----------------------|
B|-----------------------|
G|---4-4-4---------------| x4
D|-4-4-4-4---4-6-6-4-6-4-|
A|-4-2-2-2---4-6-6-4-6-4-|
E|-2-2-2-2---2-4-4-2-4-2-|

e|---------------------|
B|---------------------|
G|-----7---------------|
D|-5-7-7---9-9-9-9/7-7-|
A|-5-7-5---9-9-9-9/7-7-|
E|-3-5-5---7-7-7-7/5-5-|

e|---------------------12-------------------|
B|------------------------12---15p14--15----|
G|--------------------------14------14--14/-|
D|-12-12-12-12-12-12------------------------|
A|------------------------------------------|
E|------------------------------------------|

e|-------17--------10---------10--------|
B|-17b19hold19r17------12r11r10---12r10-|
G|--------------------------------------|
D|--------------------------------------|
A|--------------------------------------|
E|--------------------------------------|

e|-/14-14-12-10------/15-14--------------|
B|--------------------------15p14h15-14/-|
G|--------------9/7----------------------|
D|---------------------------------------|
A|---------------------------------------|
E|---------------------------------------|

e|-----------9----------9--10-10-10-|
B|-----10-12---10--8/10-10-10-10-10-|
G|-/11-------------7/9--9--9--9--9--|
D|----------------------------------|
A|----------------------------------|
E|----------------------------------|

e|-----------------|
B|-----------------|
G|-----------------|
D|-7-7-7-7-7-7-7-7-|
A|-7-7-7-7-7-7-7-7-|
E|-5-5-5-5-5-5-5-5-|
pm{...............}

e|-----------------------|
B|-----------------------|
G|---7-7-7---------------| x3
D|-7-7-7-7---7-9-9-7-9-7-|
A|-7-5-5-5---7-9-9-7-9-7-|
E|-5-5-5-5---5-7-7-5-7-5-|

e|---------------------|
B|---------------------|
G|-----7---------------|
D|-5-7-7---9-9-9-9/7-7-|
A|-5-7-5---9-9-9-9/7-7-|
E|-3-5-5---7-7-7-7/5-5-|

e|-----------------------|
B|-----------------------|
G|---7-7-7---------------| x3
D|-7-7-7-7---7-9-9-7-9-7-|
A|-7-5-5-5---7-9-9-7-9-7-|
E|-5-5-5-5---5-7-7-5-7-5-|

e|-------------------|
B|-----------------3-|
G|-----7-----7-----2-|
D|-5-7-7---7-7-7-5-0-|
A|-5-7-5---7-5-7-5-0-|
E|-3-5-5---5-5-5-3---

0 reply
LeakyFlask 141 Mar 24, 2011 02:40 PM

Most accurate solo version I've tried out so far. Though I'm not comparing it with the song, it does sound good from memory. Great job!

+1 reply
Rockin_Louie 93 Mar 28, 2014 05:17 PM

I'm thinking there should be a correction at the beginning. Instead of playing:

e|---------------------------|
B|---------------------------|
G|---------------------------| x6
D|---------------------------|
A|-5-5-------------------5-5-|
E|-----5-5-7-7---3-3-5-5-----|
pm{.........................}

...try this:
e|---------------------------|
B|---------------------------|
G|---------------------------| x6
D|-0-0-------------------0-0-|
A|-----0-0-2-2-------0-0-----|
E|---------------3-3---------|
pm{.........................}

It's less finger travel and less work to play. There's always more than one way to play the same thing on a guitar. :)

guest
You may want to rate the tab now too:
select rating
Wanna post a correction for this tab? Suggest correction