Oops, an error
Loading. Please wait.
We have an official Jessies Girl tab made by UG professional guitarists. Check out the tab »
×

Jessies Girl tab

version 5
version 5

Whole song

Video

7,061 views 153 this week
3 commentsread comments
1 2 3 4 5
x 9
add to favorites
×
Save as Personal and add changes to this tab that will be seen only by you. Learn more ›
×
You can save this tab as Personal to edit and correct it or add notes. All changes will be seen only by you. Learn more »
launch autoscroll
font size
0
reset
how to read this tab
guitar tuner
backing track
0:00
0:00
edit
Autoscroll
slow
fast
+/-
esc
set tempo
stop
Author
About this tab version
Other solos aren't correct, and extra stuff in this tab and rhythm in verse was off in other tabs. Was this info helpful? Yes No
Jessie's Girl - Rick Springfield
Tuning - Standard
Tabbed by - Derek Schmidt

Check out my page for video cover - http://www.hammerheadrocks.com/#!dereks-page/c11nt

Intro/Verse 
Guitar 1
e-------------------------------|
B-------------------------------|
G-------------------------------|
D--7-7---------------------7-7--|
A--5-5-7-7-9-9---5---5-7-7-5-5--|
E------5-5-7-7---3---3-5-5------|
PM==============================

e---------------------------------|
B---------------------------------|
G---------------------------------|
D--7---7---------------------7-7--|
A--5---5-7-7-9-9---5---5-7-7-5-5--|
E--------5-5-7-7---3---3-5-5------| X5
PM================================


Pre Chorus
Guitar 1
e-----------------------------------|
B-----------------------------------|
G--7---7---------------------7-7----|
D--7---7-7-7-9-9---5---5-7-7-7-7----|
A--5---5-7-7-9-9---5---5-7-7-5-5----|
E--------5-5-7-7---3---3-5-5--------| X3

 Guitar 2
e---10------10--|
B---x-------x---|
G---7-------7---|
D---------------|
A---------------|
E---------------| X3


Chorus 
Both Guitars
e----------------------------------------------|
B----------------------------------------------|
G----------------------7--7--7-----------------|
D--------------7-7-7-7-7--7--7-7-9-9--7--9--7--|
A------7-7-7-7-7-7-7-7-5--5--5-7-9-9--7--9--7--|
E--5-5-5-5-5-5-5-5-5-5---------5-7-7--5--7--5--|
|PM================|

e------------------------------|
B------------------------------|
G-----7--7--7------------------|
D---7-7--7--7--7-9-9--7--9--7--|
A---7-5--5--5--7-9-9--7--9--7--|
E---5----------5-7-7--5--7--5--|


Post Chorus
Both Guitars
e-----------------------|
B-----------------------|
G-------7------------7--|
D--5-7--7---5-7-5-7--7--|
A--5-7--5---5-7-5-7--5--|
E--3-5------3-5-3-5-----|


Verse 


Pre Chorus 


Chorus


Post Chorus


Chorus
e------------------------------|
B------------------------------|
G-----7--7--7------------------|
D---7-7--7--7--7-9-9--7--9--7--|
A---7-5--5--5--7-9-9--7--9--7--|
E---5----------5-7-7--5--7--5--| X2


Post Chorus X2


Bridge Part 1
Guitar 1
e-------------------|
B-------------------|
G-------------------|
D--5-5-5-5-5-5-5-5--|
A--5-5-5-5-5-5-5-5--|
E--3-3-3-3-3-3-3-3--| X11
PM==================

Guitar 2
e------7-----------10-------9--|
B------8-----------10-------10-|
G------7-----------11-------9--|
D------------------------------|
A------------------------------|
E------------------------------| X6

Bridge Part 2
Both Guitars
e------------------------------|
B------------------------------|
G-----4--4--4------------------|
D---4-4--4--4--4-6-6--4--6--4--|
A---4-2--2--2--4-6-6--4--6--4--|
E---2----------2-4-4--2--4--2--| X4


Post Chorus


Solo             Guitar 1 will do verse
Guitar 2 
e----------------12----------------------------17---------|
B-12-12-12-12-12----12----15-12----15------17b----17br----|
G----------------------14-------14----14------------------|
D---------------------------------------------------------|
A|-------------|------------------------------------------|
E|-------------|------------------------------------------|
 |             |     
 |right here add a bit of pinch harmonics|

e--------------------------12b--14-12-10-10--15b-14-12h15p12-----|
B--15----------15-------------------------------------------15v--|
G-----16-15-14---16-15-14----------------------------------------|
D----------------------------------------------------------------|
A----------------------------------------------------------------|
E----------------------------------------------------------------|

e------------9----------------------|
B------10-12---10--12--10-12-14-15--|
G--/11-------------12--11-12-14-14--|
D-----------------------------------|
A-----------------------------------|
E-----------------------------------|


Chorus 
Both Guitars
e----------------------------------------------|
B----------------------------------------------|
G----------------------7--7--7-----------------|
D--------------7-7-7-7-7--7--7-7-9-9--7--9--7--|
A------7-7-7-7-7-7-7-7-5--5--5-7-9-9--7--9--7--|
E--5-5-5-5-5-5-5-5-5-5---------5-7-7--5--7--5--|
|PM================|

e------------------------------|
B------------------------------|
G-----7--7--7------------------|
D---7-7--7--7--7-9-9--7--9--7--|
A---7-5--5--5--7-9-9--7--9--7--|
E---5----------5-7-7--5--7--5--| X2


Post Chorus 


Chorus

            
            
Suggest correction
Creating personal tab
Creating personal tab
You can edit any tab online and save it as your Personal.

You can edit, replace or remove any tab part or add personal notes – all changes will be seen only by you.

Personal tabs can be accessed anytime from any device, even offline.
Learn more »
comments
print report bad tab
3 comments total.
0 reply
skylinefootball 85 Jul 07, 2015 10:37 AM

Best Tab of this song! Finally! Thank you very much! Love the video of you playing it as well! Thanks

0 reply
hammerheadradio 10 Jul 07, 2015 10:53 AM

Thanks for the great tab! I also enjoy how you add video covers too!

0 reply
ilovedinos39 10 Jul 08, 2015 06:35 PM

Looks Great! Thanks for the perfect tab!

guest
You may want to rate the tab now too:
select rating
Wanna post a correction for this tab? Suggest correction