Oops, an error
Loading. Please wait.

She Cant Say I Didnt Cry Tab

3,455 views 3 this week
no commentswrite comment
1 2 3 4 5
2 more votes to show rating
add to favorites
launch autoscroll
font size
0
reset
how to read this tab
guitar tuner
Autoscroll
slow
fast
+/-
esc
set tempo
stop
Help us to improve Ultimate-Guitar.com Take our survey!
×
Author
Capo
1st fret
She Can't Say I Didn't Cry
Rick Trevino
CD: Rick Trevino
Track 3

Tabbed by Neil Crane

Capo 1st fret

fill 1
D
---------|
---------|
-7-7/9-7-|
---------|
---------|
---------|

fill 2
D          A  Bm        A
--------------------------|
--------------------------|
---7-7/9-7------------7-6-|
-7------------------------|
--------------------------|
--------------------------|

fill 3
D        A  Bm      Bm A   G       D A D
----------------------------------------|
----------------------------------7-----|
---7/9-7------------7--6----6-7-9---9-7-|
-7------------------------9-------------|
----------------------------------------|
----------------------------------------|
************************************************************

intro
 D     *   A Bm        A G               D       A
-2-------2-0-------2-------------------0-2-----2-0-----|
---3---3-----3-------3-2---0-----0-2-3-----3-------2---| *(begin fill 1 with fourth note)
-----2---------4---------------0-------------2-------2-|
-0-------0-------4-----------0-----------0-------------|
-----------0-2-------2-0-------------------------0-----|
-------------------------3-------3---------------------|

D              A          Bm
 If she says I caused her hurt
                 A      G
You can take her at her word
                        D        A
And know she's speaking from her heart
D                    A        Bm
 And when she talks about the pain
                 A      G
If she says that I'm to blame
              D      A
You can bet I did my part,

        Bm                        D/F#
 If she says I didn't lift a hand when
            G   D/F#      Em     D/F#            G
she walked away,     it's true I didn't make her stay, but

          A     D/F#   G
She can't say I didn't cry
          A               Bm
She can't say she didn't know
               A  G
How it tore me up inside
       A                 G D D/Db (bass note)
How it hurt to watch her go
          Bm                  A
There's a million things that she might say
     G             D/F# Em
That I cannot deny
              D/F#           G
But she can't look me in the eye
    A
And say I didn't

cry
 D   *     A Bm        A
-2-------2-0-------2-----|
---3---3-----3-------3-2-| *(begin fill 2 with third note)
-----2---------4---------|
-0-------0-------4-------|
-----------0-2-------2-0-|
-------------------------|

D               A        Bm
 If you haven't heard by now
           A       G
How much I let her down
                     D      A
When you do, you can sure believe
D            A       Bm
 That I made some mistakes
               A     G
But that don't take away
                       D        A
From just how much she meant to me

Bm                           D/F#      G    D/F#
She can say I gave her every reason to leave
            Em                  D/F#      G
But there's one thing she can't say about me

          A     D/F#   G
She can't say I didn't cry
          A               Bm
She can't say she didn't know
               A  G
How it tore me up inside
       A                 G D D/Db (bass note)
How it hurt to watch her go
          Bm                  A
There's a million things that she might say
     G             D/F# Em
That I cannot deny
              D/F#           G
But she can't look me in the eye
    A
And say I didn't

cry
G         A              Bm           A  G             A               G      D    
note)
--------------------------------------------------------------------------------------------|
-------------------------------------------------15-15-14b15-14--14-12----------------------|
-------14/16-16-14-14--------------------------------------------------14-14--14---12-11----|
-12-12----------------17-16--14/16-16----------------------------------------------------12-|
-------------------------------------------12-14--------------------------------------------|
--------------------------------------------------------------------------------------------|

          Bm                  A
There's a million things that she might say
     G             D/F# Em
That I cannot deny
              D/F#           G
But she can't look me in the eye
    A
And say I didn't

cry
 D   *     A Bm        A G       D A D
-2-------2-0-------2-----------0-2-0-2-|
---3---3-----3-------3-2-0-2-3-------3-| *(begin fill 3 with third note)
-----2---------4---------------------2-|
-0-------0-------4---------------0---0-| rake on last D
-----------0-2-------2-0-----------0---|
-------------------------3-------------|
Suggest correction
Give kudos to tab author, rate the tab!
1 2 3 4 5
comments
print report bad tab
guest
You may want to rate the tab now too:
select rating
Wanna post a correction for this tab? Suggest correction