Oops, an error
Loading. Please wait.

Chuck Es In Love Tab

version 1
version 1

Intro

Whole song

Interactive

7,532 views 3 this week
2 commentsread comments
1 2 3 4 5
x 4
add to favorites
launch autoscroll
font size
0
reset
how to read this tab
guitar tuner
×
Best way to learn
"Chuck Es In Love"
Autoscroll
slow
fast
+/-
esc
set tempo
stop
intro:
E-------------------------|----------------------------|
B--5------------2\1/2\1/2-|-5--------------------------|
G------------2--2\1/2\1/2-|-----------2--2--4/6--2h4-2-|
D--------2h4--------------|-------2h4------------------|
A----2h4------------------|---2h4----------------------|
e--5----------------------|-5--------------------------|

E-------------------------|----------------------------|
B--5------------2\1/2\1/2-|-5--------------------------|
G------------2--2\1/2\1/2-|-----------2----------------|
D--------2h4--------------|-------2h4------------------|
A----2h4------------------|---2h4--------2-------------|
e--5----------------------|-5--------------------------|




Enjoy this is a great tune. I believe this intro to be just as recorded but having
a few problems with the rest of the song...can't seem to find all the correct
jazzy chords. If somebody has them as per the recording please would you add them.
Suggest correction
comments
print report bad tab
2 comments total.
0 reply
aladin111 1,425 Aug 10, 2014 02:41 PM

E-------------------------|----------------------------|
B------------- 2\1/2\1/2-|-----------------2----------|
G------------2--2\1/2\1/2-|-----------2--2-- 2-4---2---|
D--------2h4--------------|-------2h4------------4-----|
A--0-3h4------------------|-0-3h4----------------------|
e-------------------------|----------------------------|

E--------------------------|---------------------------|
B------------- 2\1/2\1/2-|----------------------------|
G------------2--2\1/2\1/2-|-----------2----------------|
D-------2h4---------------|-------2h4------------------|
A---3h4-------------------|-0--3h4---------2/3---------|
e-------------------------|----------------------------|

Chords
E--------------------------|---------------------------|
B--5-------7---------------|-5-------7-----------------|
G--6-------7---------------|-6-------7-----------------|
D--6-------7---------------|-6-------7-----------------|
A--------------------------|---------------------------|
e--------------------------|---------------------------|

0 reply
aladin111 1,425 Aug 12, 2014 01:06 AM

Chords could also be played in this way

Amaj7 Bm7
E--0-------2----------------|
B--2-------3----------------|
G--1-------2----------------|
D--2-------4----------------|
A--0-------2----------------|
e----------2----------------|

guest
You may want to rate the tab now too:
select rating
Wanna post a correction for this tab? Suggest correction