Oops, an error
Loading. Please wait.

Freelove Freeway Tab

version 1
version 1

Solo

Interactive

3,465 views 15 this week
no commentswrite comment
1 2 3 4 5
please rate
add to favorites
launch autoscroll
font size
0
reset
how to read this tab
guitar tuner
Autoscroll
slow
fast
+/-
esc
set tempo
stop
Help us to improve Ultimate-Guitar.com Take our survey!
×
Contributor
This is the Freelove Freeway solo.

Key
x = dead mote
^ = bend
^ (#) = bend so it sounds like the note at the fret in parentheses
r = release bend
h = hammer on
p = pull off

|-----------------------------------------------------5-8--5---|
|-------------------------------------------------5-8--------8-|
|-9---7---5---2---0----------------------------2-5-------------|
|-------------------2-0---2---0------------2-5-----------------|
|-----------------------3---------3--0-3-5---------------------|
|--------------------------------------------------------------|

|-12^(13)--10--8--12--13-12-------12-10-------15^(17)r-13--12-13-12-|
|---------------------------13----------13--------------------------|
|------------------------------12----------12-----------------------|
|-------------------------------------------------------------------|
|-------------------------------------------------------------------|
|-------------------------------------------------------------------|

|----12-13-12-13-----12--13-15-----15-13-12-13--12-------------------------|
|---------------------------------------------------13---------------------|
|-------------------------------------------------------12-14-12-10-9-10-9-|
|--------------------------------------------------------------------------|
|--------------------------------------------------------------------------|
|--------------------------------------------------------------------------|
comments
We did not receive enough feedback on this tab! Please rate:
print report bad tab
1 2 3 4 5
I want to post or [tab]
guest
You may want to rate the tab now too:
select rating
Please do not post tabs as comments. Select "correction" instead!