Oops, an error
Loading. Please wait.

Mi Dolor No Es Mortal tab

20 views 1 this week
no commentswrite comment
1 2 3 4 5
3 more votes to show rating
add to favorites
×
Save as Personal and add changes to this tab that will be seen only by you. Learn more ›
×
You can save this tab as Personal to edit and correct it or add notes. All changes will be seen only by you. Learn more »
launch autoscroll
font size
0
reset
how to read this tab
guitar tuner
edit
Autoscroll
slow
fast
+/-
esc
set tempo
stop
Intro   G      C   D Dsus4   G      C    D Dsus4  
(En el intro el G se tiene q mutear varias veces 
para q se oiga bien)

UUhhh

e|----3---------------------------------3------|
B|-----3---------------------------------3-----|
G|------0------------5/(7)-----7*8--------0----|
D|-----------------5---------7-----------------|
A|---------------3---------5-------------------|
E|--3--------3*5----------------------3--------|


e|-------------------------------7---8-7-------|
B|-----------------------------8---8-----8-----|
G|---------5/(7)-----7*8-----7-----------------|
D|--------5--------7---------------------------|
A|------3--------5-----------------------------|
E|--3*5----------------------------------------|

    C - D - Dsus4 - G  
e|---------------------------------------------|
B|---------------------------------------------|
G|-------------------------------5/(7)-----7*8-|
D|------------------------------5--------7-----|
A|----------------------------3--------5-------|
E|------------------------3*5------------------|


G                 C     D Dsus4   G
la noche nunca termina
                          C    D Dsus4   G
siempre hay abierto algún bar,
                  C
un cantinero q escucha...
   D Dsus4     G
una copa y dos más,
                 C
otra mujer q me quiera... 
    D Dsus4        G
mi dolor no es mortal

(RIFF 1)
e|----3--------------------------------------|
B|-----3-------------------------------------|
G|------0------------5/(7)-----7*8-----------|
D|-----------------5---------7---------------|
A|---------------3---------5-----------------|
E|-----------3*5-----------------------------|

G                  C     D Dsus4    G
q correra por tus venas?,
                 C   D Dsus4   G
q tiene tu corazón?
                 C
q pasa con tu cabeza?,
       D Dsus4  G
tu no sabes de amor
               C
nena quiero q sepas 
    D Dsus4      G   
mi dolor no es mortal

----RIFF 1----

C          G       C             G
oyeme niña tonta, sácame de este bar,
C           G      F                  G
tomo para olvidarte y no te puedo olvidar

G    C   D        G    C    D 
Oye............   nena....... 
G    C   D        G    C    D
oye............   nena........
C              G      F                  G
...tomo para olvidarte y no te puedo olvidar

---RIFF 1--- G--C--D--Dsus4

G                       C    D Dsus4   G
la noche siempre se presta
                     C   D Dsus4   G
para tratar de olvidar
                     C   
estoy deshecho por dentro... 
       D Dsus4      G
en el amor si hay final
                     C
no importa si me abandonas 
    D Dsus4       G   
mi dolor no es mortal

---RIFF 1---

C           G     C               G
oyeme niña tonta, sacame de este bar,
C            G     F                   G
tomo para olvidarte y no te puedo olvidar

G     C        D         G        C        D   
Oye...(oyeme niña tonta) nena...(sacame de este bar)
G     C        D         G        C        D   
Oye...(oyeme niña tonta) nena...(tu no sabes de amor)
G     C        D         G        C        D   
oye...(oyeme niña tonta) nena...(la noche nunca termina)
G          C         D                G     
oye...(siempre hay abierto algun bar) nena... 
              C           D   
      (no importa si me abandonas)
G          C            D        G         C         D
oye...(mi dolor no es mortal)    nena (q pasa con tu cabeza)
G          C          D                G
oye...(nena, nena tu no sabes de amor) nena...

Fade

Ésta es una super canción de Ricky Luis, disfrutenla
caulquier comentario sugerencia o demás a mi 
mail jcd_007@

            
            
Suggest correction
Creating personal tab
Creating personal tab
You can edit any tab online and save it as your Personal.

You can edit, replace or remove any tab part or add personal notes – all changes will be seen only by you.

Personal tabs can be accessed anytime from any device, even offline.
Learn more »
Give kudos to tab author, rate the tab!
1 2 3 4 5
comments
print report bad tab
guest
Wanna post a correction for this tab? Suggest correction