Oops, an error
Loading. Please wait.

El Amor De Mi Vida bass

72 views 3 this week
no commentswrite comment
1 2 3 4 5
3 more votes to show rating
add to favorites
×
Save as Personal and add changes to this tab that will be seen only by you. Learn more ›
×
You can save this tab as Personal to edit and correct it or add notes. All changes will be seen only by you. Learn more »
launch autoscroll
font size
0
reset
guitar tuner
edit
Autoscroll
slow
fast
+/-
esc
set tempo
stop
Intro:

||------------------------------------------||
||------------------------------------------||
||-3-3-3-3-3--------------------------------||
||----------1-1-1-1-1-3-3-3-3-3-1-1-1-1-1---||

Verso:

||------------------------------------------||
||------------------------------------------||
||-3-3-3-3-3-----------5-5-5-5-5------------||
||----------0-0-0-0-0-1---------5-5-3-3h5-3-||

Puente:

||-----------------------------------------|
||-----------------------------------------|
||-----------------------------------------|
||-1-1-1-1-1-3-3-3-3-3-5-5-5-5-5-1-1-1-1-1-|

|------------------------------------------||
|------------------------------------------||
|-1-1-1-1-1--------------------------------||
|----------1-1-1-1-1-3-3-3-3-3-3-3-3-3-3-3-||

Coro:

||------------------|------------------------------||
||------------------|------------------------------||
||-3-3-3-------5-5-5|--------3-3-3-3-------5-5-5-5-||
||------1-1-1-1-----|-3-3-3-3-------1-1-1-1--------||

||-----------------------------------------------||
||-----------------------------------------------||
||------------------------5-5-5-5-1-1-1-1--------||
||-3-3-3-3-0-0-0-0-5-5-5-5---------------3-3-3-3-||

Yo no se como empezo
solo se que sucedio
fue tal vez sin darme cuenta

No podia ver la luz 
hasta que cerre mis ojos
y desperte pensando en ti.

                                   
A veces me parece que es todo una locura
un sueño sin sentido                          
Mientras estas lejos yo espero siempre aqui       
que lo nuestro vuelva a ser      
por que pude comprender...


Que eres el amor de mi vida
me lo dice mi corazon que no se olvida
ahora tengo una razon para existir 
para vivir y puedo ser feliz,por que ahora se....


Que eres el amor de mi vida 
me lo dice mi corazon que no se olvida 
ahora tengo una ilusion para compartir
puedo decir lo que siento es de verdad.


Hoy veo el sol brillar
y en mi mente tu recuerdo
esta creciendo cada dia

Para que puedas volver 
a encontrarte en mi camino
y ser el centro de mi vida.


Quizas si te propongo ,la magica aventura
de estar junto para siempre
y seas quien espero en cada atardecer
y una estrella descubrir y te pueda repetir.


ESTA ES MI INTERPRETACION DE LA CANCION, ESPERO K 
ESTE BUENA Y SE PUBLIKE...
        BY VICTOR ;)

            
            
Suggest correction
Creating personal tab
Creating personal tab
You can edit any tab online and save it as your Personal.

You can edit, replace or remove any tab part or add personal notes – all changes will be seen only by you.

Personal tabs can be accessed anytime from any device, even offline.
Learn more »
Give kudos to tab author, rate the tab!
1 2 3 4 5
comments
print report bad tab
guest
Wanna post a correction for this tab? Suggest correction