Oops, an error
Loading. Please wait.

Livin La Vida Loca Tab

version 3
version 3

Whole song

Interactive

54,184 views 123 this week
3 commentsread comments
1 2 3 4 5
x 12
add to favorites
launch autoscroll
font size
0
reset
how to read this tab
guitar tuner
Autoscroll
slow
fast
+/-
esc
set tempo
stop
Help us to improve Ultimate-Guitar.com Take our survey!
×
Author
Difficulty
Tabbers playing skills
novice
beginner
[Intro]

e|--------------------------------------------------------------------|
B|-----9---9----------10---10---9----------9---9----------------------|
G|---------------9-11--------------------------------8-8-11---11---9--|
D|--------------------------------------------------------------------|
A|--------------------------------------------------------------------|
E|--------------------------------------------------------------------|
                                                       > Play twice !


[Verse]

(stay on the C#m chord and play "ska")

"SOLO" (I)
(no disto but with a dirty clean sound...use tremolo)
e|---------------------------------------------------------|
B|---------------------------------------------------------|
G|---------------------------------------------------------|
D|------------4-4p6-------4p6------------------------------|
A|--4---4-4-7-----------7-------4-7-4-4---4-4-7-4---4------|
E|------------------------------------------------------9--|
                        slide down with tremolo pickin_/


[Verse]

[[Pre-Chorus]] (I)

       F#m                                   G#m
       A                                       B
       G#


[Chorus]

C#m                 B              C#m
C#m                 B              C#m
C#m                 B              C#m
C#m                 B              C#m
B              C#m
B              C#m


(then play the horns-part)


[Verse]

[Pre-Chorus] (II)

    F#m                               G#m
     A                                 B
     G#


[Chorus]

[SOLO] (II)

  (a)
e|---------------------------------------------------------------------|
B|----------------------------------------------5----------------------|
G|--------------------------------------------------6------6-4---------|
D|------------4-4p6-------4p6---4-----4-4-4-4-6------------------------|
A|--4---4-4-7-----------7---------7----------------------------7-4-7---|
E|---------------------------------------------------------------------|

  (b)
e|--------------------------------------------------|
B|--------------------------------------------------|
G|------------------------6-------4-4-4-4---4-6-----|
D|------------4-4p6---------------4-4-4-4-6-4-6-----|
A|--4---4-4-7-----------7-----------------6---------|
E|--------------------------------------------------|


[Pre-Chorus] (I)


[Chorus]

2 times before repeating "She's livin' la vida loca"

END
SOLO (II) (a) 4 times, and finish with
e|--------------------|
B|--------------------|
G|--4-4-4-4---4-6-----|
D|--4-4-4-4-6-4-6-----|
A|----------6---------|
E|--------------------| 2 times !



************************************

| p  Pull-off

************************************
Suggest correction
comments
print report bad tab
3 comments total.
0 reply
Anonymustipster 10 Apr 22, 2014 07:08 PM

what the hell does 4p6 mean?

+1 reply
PrincessOfMetal 10 May 08, 2014 06:29 PM

I'm pretty sure it means to "pound" from 4 to 6... :P

+1 reply
RHPablo 10 Jul 18, 2014 11:24 AM, edited at 11:24 am

well the p normally means pull off, so just hammer on from 4 - 6 and it should sound fine :)

guest
You may want to rate the tab now too:
select rating
Wanna post a correction for this tab? Suggest correction