Oops, an error
Loading. Please wait.

Livin La Vida Loca tab

version 4
version 4

Whole song

Interactive

187 views 27 this week
no commentswrite comment
1 2 3 4 5
3 more votes to show rating
add to favorites
×
Save as Personal and add changes to this tab that will be seen only by you. Learn more ›
×
You can save this tab as Personal to edit and correct it or add notes. All changes will be seen only by you. Learn more »
launch autoscroll
font size
0
reset
how to read this tab
guitar tuner
edit
Autoscroll
slow
fast
+/-
esc
set tempo
stop
About this tab version
Other versions did not include any of the interludes or solos. You can only play the second interlude when you tune down to D. Relied heavily on the music video on youtube to tab (https://www.youtube.com/watch?v=p47fEXGabaY). Was this info helpful? Yes No
Tune down to open D

[Chords Used]
C#m 7 7 9 9 8 7
F#m 5 7 7 5 5 5
G#m 7 9 9 7 7 7
A   9 11 11 10 9 9
B   11 13 13 12 11 11
G#7 7 9 7 8 9 10 7

[Intro]
D|----7--7--5--5--8--8--7--|--7--7---------5--5---------|
A|-------------------------|---------7--7--------8------|
F|-------------------------|----------------------------|  (x2)
C|-------------------------|----------------------------|
G|-------------------------|----------------------------|
D|-------------------------|----------------------------|

[Verse 1]
C#m
she’s into superstitions black cats and voodoo dolls
C#m
i feel a premonition that girl’s gonna make me fall

D|------------------------------------------------|
A|------------------------------------------------|
F|------------------------------------------------|
C|------------------------------------------------|
G|------------------------------------------------|
D|-0-0--0--3--6--3--6---3-6-3-6-0--0--0--6--0--0--|

C#m
shes into new sensations new kicks in the candle light
C#m
she’s gotta new addiction for every day and night

[Bridge]
C#m    F#m                                     G#m
she'll make you take your clothes off and go dancing in the rain
            A                                  B
she'll make you live her crazy life but shell take away your pain
         G#7
like a bullet to your brain
C#m                    B              C#m
upside inside out she’s livin’ la vida loca
                             B             C#m
she’ll push and pull you down livin la vida loca
                               B               C#m
her lips are devil red and her skin’s the color mocha
                      B             C#m
she will wear you out livin la vida loca
C#m  B              C#m
she’s livin la vida loca
C#m  B              C#m
she’s livin la vida loca

D|----7--7--5--5--8--8--7--|--7--7---------5--5---------|
A|-------------------------|---------7--7--------8------|
F|-------------------------|----------------------------|  (x2)
C|-------------------------|----------------------------|
G|-------------------------|----------------------------|
D|-------------------------|----------------------------|

[Verse 2]
*C#m                        C#m
woke up in New York city in a funky cheap hotel
C#m
she took my heart and took my money she must have slipped me a sleeping
pill

[Bridge 2]
C#m    F#m                                     G#m
she never drinks the water makes you order french champagne
            A                                  B
once you’ve have a taste of her you'll never be the same
         G#7
yeah she'll make you go insane
C#m                    B              C#m
upside inside out she’s livin’ la vida loca
                             B             C#m
she’ll push and pull you down livin la vida loca
                               B                   C#m
her lips are devil red and her skin’s the color of mocha
                      B             C#m
she will wear you out livin la vida loca
C#m  B              C#m
she’s livin la vida loca
C#m  B              C#m
she’s livin la vida loca

[Solo]
D|------------------------------------------------------------------|
A|------------------------------------------------------------------|
F|------------------------------------------------------------------|
C|---------------------------------------0--------------------------|
G|------------------------------------2-------2---0-----------------|
D|---0-0-0--3--6--3--6--3-6-3-6-6-6-6------------------3-0-3--------|

D|-------------------------------------------------------------------------------------|
A|-------------------------------------------------------------------------------------|
F|---------------------------------------------------------0---------------------------|
C|---------------------------2---0-0-0-0-0-0---0--2-2-2-2-----2--0--2-2----------------|
G|-------------------------------------------2-----------------------------------------|
D|---0-0-0--3--6--3--6--3--------------------------------------------------------------|

[Bridge]
C#m    F#m                                     G#m
she'll make you take your clothes off and go dancing in the rain
            A                                  B
she'll make you live her crazy life but shell take away your pain
         G#7
like a bullet to your brain
C#m                    B              C#m
upside inside out she’s livin’ la vida loca
                             B             C#m
she’ll push and pull you down livin la vida loca
                               B                   C#m
her lips are devil red and her skin’s the color of mocha
                      B             C#m
she will wear you out livin la vida loca
C#m  B              C#m
she’s livin la vida loca
C#m  B              C#m
she’s livin la vida loca

[Outro]
D|------------------------------------------------------------------|
A|------------------------------------------------------------------|
F|------------------------------------------------------------------|  (x4)
C|---------------------------------------0--------------------------|
G|------------------------------------2-------2---0-----------------|
D|---0-0-0--3--6--3--6--3-6-3-6-6-6-6------------------3-0-3--------|

D|-------------------------------------------------------------------------------------|
A|-------------------------------------------------------------------------------------|
F|-------------------------------------------------------------------------------------|
C|---0-0-0-0-0-0--0-2--------0-0-0-0-0-0--=0-2--------0-0-0-0-0-0---0-2----------------|
G|---------------2-----------------------2------------------------2--------------------|
D|-------------------------------------------------------------------------------------|



************************************

| * - palm mute

************************************
Suggest correction
Creating personal tab
Creating personal tab
You can edit any tab online and save it as your Personal.

You can edit, replace or remove any tab part or add personal notes – all changes will be seen only by you.

Personal tabs can be accessed anytime from any device, even offline.
Learn more »
Give kudos to tab author, rate the tab!
1 2 3 4 5
comments
print report bad tab
guest
You may want to rate the tab now too:
select rating
Wanna post a correction for this tab? Suggest correction