Oops, an error
Loading. Please wait.

Fools Rush In bass

88 views 3 this week
no commentswrite comment
1 2 3 4 5
3 more votes to show rating
add to favorites
×
Save as Personal and add changes to this tab that will be seen only by you. Learn more ›
×
You can save this tab as Personal to edit and correct it or add notes. All changes will be seen only by you. Learn more »
launch autoscroll
font size
0
reset
guitar tuner
edit
Autoscroll
slow
fast
+/-
esc
set tempo
stop
Author
Difficulty
Tabbed by: 6METAL6BASSIST6
E-mail: petergriffinav@gmail.com

Tuning: EADG

G|----------------------------------------------------------------|
D|7---------------------11--------9---------------------9---------|
A|--------7-------9-----------9-----------9-------7-----------7---|
E|----------------------------------------------------------------|

G|----------------------------------------------------------------|
D|7---------------------11--------9-------------------------------|
A|--------7-------9-----------9-----------9-------7---------------|
E|----------------------------------------------------10--9-------|

0:08

G|----------------------------------------------------------------|.
D|9---------------9-----------9-----------9-------------9---------|.
A|--------9-------------9---------7---------------7-----------7---|.
E|----------------------------------------------------------------|.
                                                                   . x2
G|----------------------------------------------------------------|.
D|7---------------7---------------7---------------7-----------7---|.
A|--------7-------------7-----7-----------7-------------7---------|.
E|----------------------------------------------------------------|.

0:24

G|----------------------------------------------------------------|
D|9---------------9-----------9-----------9-------------9---------|
A|--------9-------------9---------7---------------7-----------7---|
E|----------------------------------------------------------------|

G|----------------------------------------------------------------|
D|--------11------------11----11----------11------------11--------|
A|9---------------9---------------9---------------9-----------9---|
E|----------------------------------------------------------------|

G|----------------------------------------------------------------|
D|9-------9-------------9---------9---------------9-----7---------|
A|----------------9-----------9-----------9-------------------9---|
E|----------------------------------------------------------------|

G|----------------------------------------------------------------|
D|--------9-------------9-----9-----------9-------------6---------|
A|7---------------7---------------7---------------7---7-------7---|
E|----------------------------------------------------------------|

0:39

G|----------------------------------------------------------------|
D|9---------------9-----------9-----------9-------------9---------|
A|--------9-------------9---------7---------------7-----------7---|
E|----------------------------------------------------------------|

G|----------------------------------------------------------------|
D|7---------------7---------------7---------------7-----------7---|
A|--------7-------------7-----7-----------7-------------7---------|
E|----------------------------------------------------------------|

G|----------------------------------------------------------------|
D|9---------------9-----------9-----------9-------------9-----10--|
A|--------9-------------9---------7---------------7---------------|
E|----------------------------------------------------------------|

G|----------------------------------------------------------------|
D|11------11------------11----------------11------------11--------|
A|----------------10----------10--9---------------9-----------9---|
E|----------------------------------------------------------------|

0:55

G|----------------------------------------------------------------|
D|9---------------9-----------9-\---------7-------------7---------|
A|--------9-------------9---------5---------------5-----------5---|
E|----------------------------------------------------------------|

G|----------------------------------------------------------------|
D|7---------------7-----------------------11------------11--------|
A|--------7-------------7-----8---9---------------9-----------9---|
E|----------------------------------------------------------------|

G|----------------------------------------------------------------|
D|9---------------9-----------------------9-------------9---------|
A|--------9-------------9-----8---7---------------7-----------7---|
E|----------------------------------------------------------------|

G|----------------------------------------------------------------|
D|7---------------7---------------7---------------7-----------7---|
A|--------7-------------7-----7-----------7-------------7---------|
E|----------------------------------------------------------------|

1:10

G|----------------------------------------------------------------|.
D|9---------------9-----------9-----------9-------------9---------|.
A|--------9-------------9---------7---------------7-----------7---|.
E|----------------------------------------------------------------|.
                                                                   . x2
G|----------------------------------------------------------------|.
D|7---------------7---------------7---------------7-----------7---|.
A|--------7-------------7-----7-----------7-------------7---------|.
E|----------------------------------------------------------------|.

1:26

G|----------------------------------------------------------------|
D|9---------------9-----------9-----------9-------------9---------|
A|--------9-------------9---------7---------------7-----------7---|
E|----------------------------------------------------------------|

G|----------------------------------------------------------------|
D|--------11------------11----11----------11------------11--------|
A|9---------------9---------------9---------------9-----------9---|
E|----------------------------------------------------------------|

G|----------------------------------------------------------------|
D|9-------9-------------9---------9---------------9-----7---------|
A|----------------9-----------9-----------9-------------------9---|
E|----------------------------------------------------------------|

G|----------------------------------------------------------------|
D|--------9-------------9-----9-----------9-------------6---------|
A|7---------------7---------------7---------------7---7-------7---|
E|----------------------------------------------------------------|

1:42

G|----------------------------------------------------------------|
D|9---------------9-----------9-----------9-------------9---------|
A|--------9-------------9---------7---------------7-----------7---|
E|----------------------------------------------------------------|

G|----------------------------------------------------------------|
D|7---------------7---------------7---------------7-----------7---|
A|--------7-------------7-----7-----------7-------------7---------|
E|----------------------------------------------------------------|

G|----------------------------------------------------------------|
D|9---------------9-----------9-----------9-------------9-----10--|
A|--------9-------------9---------7---------------7---------------|
E|----------------------------------------------------------------|

G|----------------------------------------------------------------|
D|11------11------------11----------------11------------11--------|
A|----------------10----------10--9---------------9-----------9---|
E|----------------------------------------------------------------|

1:58

G|----------------------------------------------------------------|
D|9---------------9-----------9-\---------7-------------7---------|
A|--------9-------------9---------5---------------5-----------5---|
E|----------------------------------------------------------------|

G|----------------------------------------------------------------|
D|7---------------7-----------------------11------------11--------|
A|--------7-------------7-----8---9---------------9-----------9---|
E|----------------------------------------------------------------|

G|----------------------------------------------------------------|
D|9---------------9-----------9-----------9-------------9---------|
A|--------9-------------9---------7---------------7-----------7---|
E|----------------------------------------------------------------|

G|----------------------------------------------------------------|
D|7---------------7-----------------------11------------11--------|
A|--------7-------------7-----8---9---------------9-----------9---|
E|----------------------------------------------------------------|

2:13

G|----------------------------------------------------------------|
D|9---------------9-----------------------9-------------9---------|
A|--------9-------------9-----8---7---------------7-----------7---|
E|----------------------------------------------------------------|

G|----------------------------------------------------------------|
D|7---------------7-----------------------11------------11--------|
A|--------7-------------7-----8---9---------------9-----------9---|
E|----------------------------------------------------------------|

G|----------------------------------------------------------------|
D|9---------------9-----------------------9-------------9---------|
A|--------9-------------9-----8---7---------------7-----------7---|
E|----------------------------------------------------------------|

G|----------------------------------------------------------------|
D|7---------------7---------------7---------------7---------------|
A|--------7-------------7-----7-----------7-----------------------|
E|----------------------------------------------------------------|
Suggest correction
Creating personal tab
Creating personal tab
You can edit any tab online and save it as your Personal.

You can edit, replace or remove any tab part or add personal notes – all changes will be seen only by you.

Personal tabs can be accessed anytime from any device, even offline.
Learn more »
Give kudos to tab author, rate the tab!
1 2 3 4 5
comments
print report bad tab
guest
You may want to rate the tab now too:
select rating
Wanna post a correction for this tab? Suggest correction