Oops, an error
Loading. Please wait.

In My Dreams bass

46 views 1 this week
no commentswrite comment
1 2 3 4 5
3 more votes to show rating
add to favorites
×
Save as Personal and add changes to this tab that will be seen only by you. Learn more ›
×
You can save this tab as Personal to edit and correct it or add notes. All changes will be seen only by you. Learn more »
launch autoscroll
font size
0
reset
guitar tuner
edit
Autoscroll
slow
fast
+/-
esc
set tempo
stop
Author
Difficulty
Tabbed by: 6METAL6BASSIST6
E-mail: petergriffinav@gmail.com

Tuning: EADG

0:04

G|--------2---|
D|----3-------|
A|3-----------|
E|------------|

G|------------------------------------------------------------2---|
D|------------2---------/-5-------------------2-----------3-------|
A|3-------------------------------3-------------------3-----------|
E|----------------------------------------------------------------|

0:10

G|----------------------------------------------------------------|
D|------------2-----------5-------------------2-----------3---4---|
A|3-------------------------------3-------------------------------|
E|----------------------------------------------------------------|

G|----------------------------------------------------------------|
D|5---------------------------------------------------------------|
A|------------5-----------5-------------------5-----------3---5---|
E|--------------------------------3-------------------------------|

G|----------------------------------------------------------------|
D|----------------------------------------------------------------|
A|------------5-----------5-------------------5---------------5---|
E|3-------------------------------3-----------------------3-------|

G|----------------------------------------------------------------|
D|------------5-----------5-----------------------0-------2-------|
A|3-------------------------------3-----------3-------------------|
E|----------------------------------------------------------------|

0:26

G|----------------------------------------------------------------|
D|3-----------------------3---/---5-------------------5-------5---|
A|------------3---------------------------------------------------|
E|----------------------------------------------------------------|

G|----------------------------------------------------------------|
D|----------------------------------------------------------------|
A|3-----------------------3---2-----------------------------------|
E|--------------------3-----------5-----------0-----------5-------|

G|----------------------------------------------------------------|
D|3-----------------------3---/---5-----------------------5-------|
A|------------3-------------------------------5-------------------|
E|----------------------------------------------------------------|

G|----------------------------------------------------------------|
D|------------------------3---4---5---5---3-------2---2-----------|
A|3-----------3-------------------------------------------5---5---|
E|----------------------------------------------------------------|

0:43

G|----------------------------------------------------------------|
D|------------2-----------3-/-5---------------2-----------3---4---|
A|3-------------------------------3-------------------------------|
E|----------------------------------------------------------------|

G|----------------------------------------------------------------|
D|5---------------------------------------------------------------|
A|------------5-----------5-------------------------------3---5---|
E|--------------------------------3-------------------------------|

G|----------------------------------------------------------------|
D|----------------------------------------------------------------|
A|------------5-----------5-------------------5---------/-5-------|
E|3-------------------------------3-------------------------------|

G|----------------------------------------------------------------|
D|------------5-----------5-----------------------0-------2-------|
A|3-------------------------------3-----------3-------------------|
E|----------------------------------------------------------------|

0:59

G|----------------------------------------------------------------|
D|3-----------------------3---/---5-------------------5-------5---|
A|------------3---------------------------------------------------|
E|----------------------------------------------------------------|

G|----------------------------------------------------------------|
D|------------5---------------------------------------------------|
A|3---------------------------2-----------------------------------|
E|--------------------------------5-----------0-------------------|

G|----------------------------------------------------------------|
D|3-----------------------3---/---5-----------------------5-------|
A|------------3-------------------------------5-------------------|
E|----------------------------------------------------------------|

G|----------------------------------------------------------------|
D|------------5-----------5---------------------------------------|
A|3-------------------------------3-------3---3---2---2-----------|
E|--------------------------------------------------------5---5---|

1:16

G|----------------------------------------------------------------|
D|----------------------------------------------------------------|
A|------------2-----------5---2---------------2-----------5---2---|
E|3-------------------------------3-------------------------------|

G|----------------------------------------------------------------|
D|------------2-----------5---2-----------------------------------|
A|3-------------------------------3-------3---3---2---2-----------|
E|--------------------------------------------------------5---5---|

G|----------------------------------------------------------------|
D|----------------------------------------------------------------|
A|------------2-----------5---2---------------2-----------5---2---|
E|3-------------------------------3-------------------------------|

G|----------------------------------------------------------------|
D|------------4---------------4---5-------------------------------|
A|5---------------------------------------------------------------|
E|--------------------------------------------------------3-------|

G|----------------------------------------------------------------|
D|------------------------4---5---6-------4-------3---------------|
A|------------6-------------------------------------------6-------|
E|4---------------------------------------------------------------|

1:36

G|----------------------------------------------------------------|
D|------------3-----------6-------------------3-----------4---5---|
A|4-------------------------------4-------------------------------|
E|----------------------------------------------------------------|

G|----------------------------------------------------------------|
D|6---------------------------------------------------------------|
A|------------6-----------6-------------------6-----------4---6---|
E|--------------------------------4-------------------------------|

G|----------------------------------------------------------------|
D|----------------------------------------------------------------|
A|------------6-----------6-------------------6-----------6-------|
E|4-------------------------------4-------------------------------|

G|----------------------------------------------------------------|
D|----------------6-------6-----------------------2-------3-------|
A|4-------------------------------4-----------4-------------------|
E|----------------------------------------------------------------|

1:52

G|----------------------------------------------------------------|
D|4-----------------------4---/---6-------------------6-------6---|
A|------------4---------------------------------------------------|
E|----------------------------------------------------------------|

G|--------------------------------------------------------3-------|
D|--------------------------------------------3---------------3---|
A|4-----------------------4---3---1-------------------------------|
E|--------------------4-------------------------------------------|

G|----------------------------------------------------------------|
D|4-----------------------4---/---6-------------------------------|
A|------------4-------------------------------6---------------6---|
E|--------------------------------------------------------4-------|

G|----------------------------------------------------------------|
D|------------6-------------------------------3---------------3---|
A|4-----------------------4---3---1-------------------------------|
E|--------------------4-------------------------------------------|

2:09

G|----------------------------------------------------------------|
D|4-----------------------4---/---6-----------------------6-------|
A|------------4-------------------------------6---------------6---|
E|----------------------------------------------------------------|

G|--------------------------------------------------------3-------|
D|------------6-------------------------------3-------------------|
A|4-----------------------4---3---1-------------------------------|
E|--------------------4-------------------------------------------|

G|------------------------------------------------|
D|4-----------------------4---/---6---------------| fades out here.
A|------------4-------------------------------6---|
E|------------------------------------------------|

            
            
Suggest correction
Creating personal tab
Creating personal tab
You can edit any tab online and save it as your Personal.

You can edit, replace or remove any tab part or add personal notes – all changes will be seen only by you.

Personal tabs can be accessed anytime from any device, even offline.
Learn more »
Give kudos to tab author, rate the tab!
1 2 3 4 5
comments
print report bad tab
guest
You may want to rate the tab now too:
select rating
Wanna post a correction for this tab? Suggest correction