Oops, an error
Loading. Please wait.

Its Up To You bass

46 views 1 this week
no commentswrite comment
1 2 3 4 5
3 more votes to show rating
add to favorites
×
Save as Personal and add changes to this tab that will be seen only by you. Learn more ›
×
You can save this tab as Personal to edit and correct it or add notes. All changes will be seen only by you. Learn more »
launch autoscroll
font size
0
reset
guitar tuner
edit
Autoscroll
slow
fast
+/-
esc
set tempo
stop
Author
Difficulty
Tabbed by: 6METAL6BASSIST6
E-mail: petergriffinav@gmail.com

Tuning: EADG

G|----------------------------------------------------------------|
D|------------7-------------------4-----------------------4-------|
A|5-----------------------5-------------------4-------------------|
E|----------------------------------------------------------------|

G|----------------------------------------------------------------|
D|------------5-------------------7---7---5---5---4---4-----------|
A|5-----------------------5-------------------------------7-------|
E|----------------------------------------------------------------|

0:09

G|----------------------------------------------------------------|.
D|------------7-----------7---8---9-----------------------9---\---|.
A|5-------------------5-----------------------9-------9-----------|.
E|----------------------------------------------------------------|.
                                                                   . x2
G|----------------------------------------------------------------|.
D|----------------7---------------------------4-------5---6---7---|.
A|5-----------5-----------7-------5-------------------------------|.
E|----------------------------------------------------------------|.

0:24

G|----------------------------------------------------------------|
D|------------7-----------7---8---9-----------------------9---\---|
A|5-------------------5-----------------------9-------9-----------|
E|----------------------------------------------------------------|

G|----------------------------------------------------------------|
D|5-------------------------------5-----------------------5-------|
A|------------5-----------5-------------------5-------------------|
E|----------------------------------------------------------------|

G|----------------------------------------------------------------|
D|------------4-----------4---5---7-----------------------7-------|
A|5-------------------5-----------------------7-------------------|
E|----------------------------------------------------------------|

G|----------------------------------------------------------------|
D|----------------5-----------5-------7---7---7---7---7---7---7---|
A|5-----------5-------------------5-------------------------------|
E|----------------------------------------------------------------|

0:39

G|----------------------------------------------------------------|.
D|------------7-----------7---8---9-----------------------9---\---|.
A|5-------------------5-----------------------9-------9-----------|.
E|----------------------------------------------------------------|.
                                                                   . x2
G|----------------------------------------------------------------|.
D|----------------7---------------------------4-----------7-------|.
A|5-----------5-----------7-------5-------------------------------|.
E|----------------------------------------------------------------|.

0:54

G|----------------------------------------------------------------|
D|------------7-----------7---8---9-----------------------9---\---|
A|5-------------------5-----------------------9-------9-----------|
E|----------------------------------------------------------------|

G|----------------------------------------------------------------|
D|5-------------------------------5-----------------------5-------|
A|------------5-----------5-------------------5-------------------|
E|----------------------------------------------------------------|

G|----------------------------------------------------------------|
D|------------4-----------4---5---7-----------------------7-------|
A|5-------------------5-----------------------7-------------------|
E|----------------------------------------------------------------|

G|----------------------------------------------------------------|
D|----------------5-----------5---------------4-----------4---5---|
A|5-----------5-------------------5-------------------5-----------|
E|----------------------------------------------------------------|

1:10

G|----------------------------------------------------------------|
D|7-----------------------7-------------------4-----------4---5---| x2
A|------------7-------------------5-------------------5-----------|
E|----------------------------------------------------------------|

G|----------------------------------------------------------------|
D|7-----------------------7---------------7-------9---------------|
A|------------7-------------------5-----------------------9-------|
E|----------------------------------------------------------------|

G|----------------------------------------------------------------|
D|------------9-------------------7---7---5---5---4---4-----------|
A|7-----------------------7-------------------------------7-------|
E|----------------------------------------------------------------|

1:25

G|----------------------------------------------------------------|
D|------------7-----------7---8---9-----------------------9---\---|
A|5-------------------5-----------------------9-------9-----------|
E|----------------------------------------------------------------|

G|----------------------------------------------------------------|
D|5---------------7---------------------------4-------5---6---7---|
A|------------5-----------7-------5-------------------------------|
E|----------------------------------------------------------------|

G|----------------------------------------------------------------|
D|------------7-----------7---8---9-----------------------9---\---|
A|5-------------------5-----------------------9-------------------|
E|----------------------------------------------------------------|

G|----------------------------------------------------------------|
D|5---------------7---------------------------4-----------7-------|
A|------------5-----------7-------5-------------------------------|
E|----------------------------------------------------------------|

1:41

G|----------------------------------------------------------------|
D|------------7-----------7---8---9-----------------------9---\---|
A|5-------------------5-----------------------9-------9-----------|
E|----------------------------------------------------------------|

G|----------------------------------------------------------------|
D|5-------------------------------5-----------------------5-------|
A|------------5-----------5-------------------5-------------------|
E|----------------------------------------------------------------|

G|----------------------------------------------------------------|
D|------------4-----------4---5---7-----------------------7-------|
A|5-------------------5-----------------------7-------------------|
E|----------------------------------------------------------------|

G|----------------------------------------------------------------|
D|----------------5-----------5-------7---7---7---7---7---7---7---|
A|5-----------5-------------------5-------------------------------|
E|----------------------------------------------------------------|

1:57

G|----------------------------------------------------------------|
D|------------7-----------7---8---9-----------------------9---\---|
A|5-------------------5-----------------------9-------9-----------|
E|----------------------------------------------------------------|

G|----------------------------------------------------------------|
D|5---------------7---------------------------4-------5---6---7---|
A|------------5-----------7-------5-------------------------------|
E|----------------------------------------------------------------|

G|----------------------------------------------------------------|
D|------------7-----------7---8---9-----------------------9---\---|
A|5-------------------5-----------------------9-------9-----------|
E|----------------------------------------------------------------|

G|----------------------------------------------------------------|
D|5---------------7---------------------------4-----------7-------|
A|------------5-----------7-------5-------------------5-----------|
E|----------------------------------------------------------------|

2:12

G|----------------------------------------------------------------|
D|------------7-----------7---8---9-----------------------9---\---|
A|5-------------------5-----------------------9-------9-----------|
E|----------------------------------------------------------------|

G|----------------------------------------------------------------|
D|5-------------------------------5-----------------------5-------|
A|------------5-----------5-------------------5-------------------|
E|----------------------------------------------------------------|

G|----------------------------------------------------------------|
D|------------4-----------4---5---7-----------------------7-------|
A|5-------------------5-----------------------7-------------------|
E|----------------------------------------------------------------|

G|----------------------------------------------------------------|
D|----------------5-----------5-------7---7---7---7---7---7---7---|
A|5-----------5-------------------5-------------------------------|
E|----------------------------------------------------------------|

2:28 Until fadeout.

G|----------------------------------------------------------------|
D|------------7-----------7---8---9-----------------------9---\---|
A|5-------------------5-----------------------9-------9-----------|
E|----------------------------------------------------------------|

            
            
Suggest correction
Creating personal tab
Creating personal tab
You can edit any tab online and save it as your Personal.

You can edit, replace or remove any tab part or add personal notes – all changes will be seen only by you.

Personal tabs can be accessed anytime from any device, even offline.
Learn more »
Give kudos to tab author, rate the tab!
1 2 3 4 5
comments
print report bad tab
guest
You may want to rate the tab now too:
select rating
Wanna post a correction for this tab? Suggest correction