Oops, an error
Loading. Please wait.

Try To Remember bass

25 views 1 this week
no commentswrite comment
1 2 3 4 5
3 more votes to show rating
add to favorites
×
Save as Personal and add changes to this tab that will be seen only by you. Learn more ›
×
You can save this tab as Personal to edit and correct it or add notes. All changes will be seen only by you. Learn more »
launch autoscroll
font size
0
reset
guitar tuner
edit
Autoscroll
slow
fast
+/-
esc
set tempo
stop
Author
Difficulty
Tabbed by: 6METAL6BASSIST6
E-mail: petergriffinav@gmail.com

Tuning: EADG

G|------------------------------------------------------------------------|
D|------------------------------------4-----------------------------------|
A|5-----------------------------------------------------------------------|
E|------------------------------------------------------------------------|

G|------------------------------------------------------------------------|
D|5-----------------------------------7-----------------------------------|
A|------------------------------------------------------------------------|
E|------------------------------------------------------------5-----------|

0:09

G|------------------------------------------------------------------------|
D|------------------------------------4-----------------------------------|
A|5-----------------------------------------------------------------------|
E|------------------------------------------------------------------------|

G|------------------------------------------------------------------------|
D|5-----------------------------------------------------------2-----------|
A|------------------------------------------------4-----------------------|
E|------------------------------------5-----------------------------------|

G|------------------------------------------------------------------------|
D|------------------------------------4-----------------------------------|
A|5-----------------------------------------------------------------------|
E|------------------------------------------------------------------------|

G|------------------------------------------------------------------------|
D|5-----------------------------------------------------------------------|
A|------------------------------------------------2-----------4-----------|
E|------------------------------------5-----------------------------------|

0:25

G|------------------------------------------------------------------------|.
D|------------------------------------4-----------------------------------|.
A|5-----------------------------------------------------------------------|.
E|------------------------------------------------------------------------|.
                                                                           . x2
G|------------------------------------------------------------------------|.
D|5-----------------------------------------------------------2-----------|.
A|------------------------------------------------4-----------------------|.
E|------------------------------------5-----------------------------------|.

0:41

G|------------------------------------------------------------------------|
D|4-----------------------4-------------------------------------------4---|
A|------------------------------------2-----------------------------------|
E|------------------------------------------------------------------------|

G|------------------------------------------------------------------------|
D|2-----------------------2-----------------------------------------------|
A|------------------------------------------------2-----------4-----------|
E|------------------------------------5-----------------------------------|

G|------------------------------------------------------------------------|
D|------------------------------------------------------------------------|
A|5-----------------------5-----------------------------------------------|
E|------------------------------------3-----------------------3-----------|

G|------------------------------------------------------------------------|
D|------------------------------------------------------------------------|
A|------------------------------------------------2-----------4-----------|
E|0-----------------------0-----------5-----------------------------------|

0:57

G|------------------------------------------------------------------------|
D|------------------------------------4-----------------------------------|
A|5-----------------------------------------------------------------------|
E|------------------------------------------------------------------------|

G|------------------------------------------------------------------------|
D|5-----------------------5-----------7-----------------------------------|
A|------------------------------------------------------------------------|
E|------------------------------------------------------------5-----------|

G|------------------------------------------------------------------------|
D|------------------------------------4-----------------------------------|
A|5-----------------------------------------------------------------------|
E|------------------------------------------------------------------------|

G|------------------------------------------------------------------------|
D|5-----------------------4-------/---7-----------------------------------|
A|------------------------------------------------------------4-----------|
E|------------------------------------------------5-----------------------|

1:13

G|------------------------------------------------------------------------|
D|------------------------------------4-----------------------------------|
A|5-----------------------------------------------------------------------|
E|------------------------------------------------------------------------|

G|------------------------------------------------------------------------|
D|5-----------------------------------7-----------------------------------|
A|------------------------------------------------------------------------|
E|------------------------------------------------------------5-----------|

G|------------------------------------------------------------------------|
D|------------------------------------4-----------------------------------|
A|5-----------------------------------------------------------------------|
E|------------------------------------------------------------------------|

G|------------------------------------------------------------------------|
D|5-----------------------------------------------------------2-----------|
A|------------------------------------------------4-----------------------|
E|------------------------------------5-----------------------------------|

1:29

G|------------------------------------------------------------------------|
D|------------------------------------4-----------------------------------|
A|5-----------------------------------------------------------------------|
E|------------------------------------------------------------------------|

G|------------------------------------------------------------------------|
D|5-----------------------------------------------------------------------|
A|------------------------------------------------------------------------|
E|------------------------------------5-----------------------5-----------|

G|------------------------------------------------------------------------|
D|------------------------------------4-----------------------------------|
A|5-----------------------------------------------------------------------|
E|------------------------------------------------------------------------|

G|------------------------------------------------------------------------|
D|5-----------------------------------7-----------------------------------|
A|------------------------------------------------------------------------|
E|------------------------------------------------------------5-----------|

1:45

G|------------------------------------------------------------------------|
D|4-----------------------4-----------------------------------------------|
A|------------------------------------2-----------4-----------5-----------|
E|------------------------------------------------------------------------|

G|------------------------------------------------------------------------|
D|2-----------------------2-----------------------------------2-----------|
A|------------------------------------------------4-----------------------|
E|------------------------------------5-----------------------------------|

G|------------------------------------------------------------------------|
D|------------------------------------------------------------------------|
A|5-----------------------5-----------------------------------------------|
E|------------------------------------3-----------------------3-----------|

G|------------------------------------------------------------------------|
D|------------------------------------------------------------------------|
A|------------------------------------------------2-----------4-----------|
E|0-----------------------0-----------5-----------------------------------|

2:01

G|------------------------------------------------------------------------|
D|------------------------------------4-----------------------------------|
A|5-----------------------------------------------------------------------|
E|------------------------------------------------------------------------|

G|------------------------------------------------------------------------|
D|5-----------------------------------------------------------2-----------|
A|------------------------------------------------4-----------------------|
E|------------------------------------5-----------------------------------|

G|------------------------------------------------------------------------|
D|------------------------------------4-----------------------------------|
A|5-----------------------------------------------------------------------|
E|------------------------------------------------------------------------|

G|------------------------------------------------------------------------|
D|5-----------------------------------------------------------------------|
A|----------------------------------------5-------------------------------|
E|------------5-----------5-----------------------------------------------|
Suggest correction
Creating personal tab
Creating personal tab
You can edit any tab online and save it as your Personal.

You can edit, replace or remove any tab part or add personal notes – all changes will be seen only by you.

Personal tabs can be accessed anytime from any device, even offline.
Learn more »
Give kudos to tab author, rate the tab!
1 2 3 4 5
comments
print report bad tab
guest
You may want to rate the tab now too:
select rating
Wanna post a correction for this tab? Suggest correction