Oops, an error
Loading. Please wait.

Antukin Tab

version 1
version 1

Solo

Whole song

106 views 9 this week
no commentswrite comment
1 2 3 4 5
3 more votes to show rating
add to favorites
launch autoscroll
font size
0
reset
how to read this tab
guitar tuner
Autoscroll
slow
fast
+/-
esc
set tempo
stop
Help us to improve Ultimate-Guitar.com Take our survey!
×
Author
Difficulty
novice
[Guitar Solo]

Rhythm
e|----0-----1-----0--------------------------------|
B|----1-----3-----1--------------------------------|
G|----0-----2-----2--------------------------------|
D|----2-----0-----2--------------------------------|
A|----3-----------0--------------------------------|
E|-------------------------------------------------|

e|----1-----5--------------------------------------|
B|----1-----6--------------------------------------|
G|----2-----7--------------------------------------|
D|----3-----7--------------------------------------|
A|----3-----5--------------------------------------|
E|----1--------------------------------------------|

Lead
e|--------0----------------------------------------|
B|------0---0--------------------------------------|
G|----5--------------------------------------------|
D|-------------------------------------------------|
A|-------------------------------------------------|
E|-------------------------------------------------|

e|-------------------------------------------------|
B|------------5-8-5-----------5-8-5----------------|
G|--------5-7-------------5-7----------------------|
D|----5-7-------------5-7--------------------------|
A|-------------------------------------------------|
E|-------------------------------------------------|

e|-------------------------------------------------|
B|------------5-8-5-------5---5--------------------|
G|--------5-7-------7-5-7---7----------------------|
D|----5-7-----------------------2-2-7-7------------|
A|------------------------------0-0----------------|
E|-------------------------------------------------|

e|-------------------------------------------------|
B|------------5-8-5-----------5-8-5----------------|
G|--------5-7-------------5-7----------------------|
D|----5-7-------------5-7--------------------------|
A|-------------------------------------------------|
E|-------------------------------------------------|

Option 1
e|-------------------------------------------------|
B|------------5-8----------------------------------|
G|--------5-7------8-8-8-7-5--8-8-5-8-7-5----------|
D|----5-7------------------------------------------|
A|-------------------------------------------------|
E|-------------------------------------------------|

Option 2
e|-------------------------------------------------|
B|-------------------------------------------------|
G|------------5-8----------------------------------|
D|--------5-7--------------------------------------|
A|----5-7------------------------------------------|
E|-------------------------------------------------|

e|-------------------------------------------------|
B|----5---5---5-4-2--------------------------------|
G|----8---8---8-7-5--------------------------------|
D|-------------------------------------------------|
A|------0---0--------------------------------------|
E|-------------------------------------------------|

e|-------------------------------------------------|
B|----5---5-2-5-4-2--------------------------------|
G|----8---8-5-8-7-5--------------------------------|
D|-------------------------------------------------|
A|------0------------------------------------------|
E|-------------------------------------------------|

Resume
e|----------------------7-8-7-8-10-12-10-12--------|
B|----5-6-5-6-8-10-8-10----------------------------|
G|-------------------------------------------------|
D|------------------------------------------9-9----|
A|------------------------------------------0-0----|
E|-------------------------------------------------|

e|-------------------------------------------------|
B|-----------8h10-13p10p8--------------------------|
G|----7h9h10--------------h10----------------------|
D|-------------------------------------------------|
A|-------------------------------------------------|
E|-------------------------------------------------|

e|-------------------------------------------------|
B|----8h10-13p10p8---------------------------------|
G|-----------------h10-----------------------------|
D|-------------------------------------------------|
A|-------------------------------------------------|
E|-------------------------------------------------|

e|-------------------------------------------------|
B|----8h10-15p10p8-----8h10-15p10p8----------------|
G|-----------------h10-----------------------------|
D|-------------------------------------------------|
A|-------------------------------------------------|
E|-------------------------------------------------|

e|-------------------------------------------------|
B|-------------8-----------------------------------|
G|----h10-9-10---9---------------------------------|
D|-------------------------------------------------|
A|-------------------------------------------------|
E|-------------------------------------------------|

Video tutorial for this tab on my youtube channel:
https://youtu.be/gwaFl5SxBcA


*****************

| h   hammer-on
| p   pull-off
Suggest correction
Give kudos to tab author, rate the tab!
1 2 3 4 5
comments
print report bad tab
guest
You may want to rate the tab now too:
select rating
Wanna post a correction for this tab? Suggest correction