Oops, an error
Loading. Please wait.

Antukin Tab

version 1
version 1

Whole song

51,359 views 39 this week
5 commentsread comments
1 2 3 4 5
1 last vote to show rating
add to favorites
launch autoscroll
font size
0
reset
how to read this tab
guitar tuner
Autoscroll
slow
fast
+/-
esc
set tempo
stop
Help us to improve Ultimate-Guitar.com Take our survey!
×
Title: Antukin
Artist: Rico Blanco
Album: Your Universe
Chords by: Mark Jesson Galera (La Union)

For any comments and Suggestion:

Text Me: 09082360710/09156169501
Friendster: boybassista@yahoo.com


Tuning: Standard

(Airplane Effect)

Intro:

Guitar 1:
e-------------------------------|----------------|
b-------------------------------|----------------|
g-----5----------5---------5----|--55---------55-|
D---5---5------5---5-----5---5--|-----55---------|
A-3---------55------------------|---------33-----|
E----------------------5--------|----------------|


Verse:

Iniwan ka na ng....
e-------------------------------|----------------|
b-------------------------------|----------------|
g-----5----------5---------5----|--55---------55-|
D---5---5------5---5-----5---5--|-----55---------|
A-3---------55------------------|---------33-----|
E----------------------5--------|----------------|

Ok lang baby..                  Antukin>
e-------------------------------|----------------|
b-------------------------------|----------------|
g-----5----------5---------5----|--55---------55-|
D---5---5------5---5-----5---5--|-----55---------|
A-3---------55------------------|---------33-----|
E----------------------5--------|----------------|

Break:

Guitar 1:          Guitar 2:
                   C     Dm
e--------------|--------111------|
b--------------|--111---333------|
g--5555--7777--|--000---222------|
D--5555--7777--|--222------------|
A--3333--5555--|--333------------|
E--------------|-----------------|
            
Kukupkupin nalang..
e-------------------------------|----------------|
b-------------------------------|----------------|
g-----5----------5---------5----|--55---------55-|
D---5---5------5---5-----5---5--|-----55---------|
A-3---------55------------------|---------33-----|
E----------------------5--------|----------------|

Sori...
e-------------------------------|----------------|
b-------------------------------|----------------|
g-----5----------5---------5----|--55---------55-|
D---5---5------5---5-----5---5--|-----55---------|
A-3---------55------------------|---------33-----|
E----------------------5--------|----------------|

Mahalin mo nalang..
e-------------------------------|----------------|
b-------------------------------|----------------|
g-----5----------5---------5----|--55---------55-|
D---5---5------5---5-----5---5--|-----55---------|
A-3---------55------------------|---------33-----|
E----------------------5--------|----------------|

Para patas naman tayo...di ba....                 
e--------------|--------111------|
b--------------|--111---333------|
g--5555--7777--|--000---222------|
D--5555--7777--|--222------------|
A--3333--5555--|--333------------|
E--------------|-----------------|


Chorus:

Sasalubungin....
e-------------------------------------------|
b-------------------------------------------|
g--5555--------77777--55555----------77777--|
D--5555--5555--77777--55555---55555--77777--| Guitar 1:
A--3333--5555--55555--33333---55555--55555--|
E--------3333-----------------33333---------|

e------3333---1111--|
b-111--3333---3333--|
g-000--0000---2222--| Guitar 2:
D-222--0000---------|
A-333--2222---------|
E------3333---------|

Kung ayaw man...
e---------------------|
b---------------------|
g--77777--------------|
D--77777---777777-----|Guitar 1:
A--55555---777777-----|
E----------555555-----|

Accompanied by Guitar 1:(kung ayaw man..)
e--111---------1111--------|
b--333---111---3333--1111--|
g--222---222---2222--2222--|
D--------222---------2222--|
A--------------------------|
E--------------------------|


Intro: 
e-------------------------------|----------------|
b-------------------------------|----------------|
g-----5----------5---------5----|--55---------55-|
D---5---5------5---5-----5---5--|-----55---------| 2x
A-3---------55------------------|---------33-----|
E----------------------5--------|----------------|

Pinaiyakan ka ng..
e-------------------------------|----------------|
b-------------------------------|----------------|
g-----5----------5---------5----|--55---------55-|
D---5---5------5---5-----5---5--|-----55---------|
A-3---------55------------------|---------33-----|
E----------------------5--------|----------------|

Hindi na raw...
e-------------------------------|----------------|
b-------------------------------|----------------|
g-----5----------5---------5----|--55---------55-|
D---5---5------5---5-----5---5--|-----55---------|
A-3---------55------------------|---------33-----|
E----------------------5--------|----------------|

Buti nalang...
e-------------------------------|----------------|
b-------------------------------|----------------|
g-----5----------5---------5----|--55---------55-|
D---5---5------5---5-----5---5--|-----55---------|
A-3---------55------------------|---------33-----|
E----------------------5--------|----------------|

Refrain:

Pag-ibig na...               
e--------------|--------111------|
b--------------|--111---333------|
g--5555--7777--|--000---222------|
D--5555--7777--|--222------------|
A--3333--5555--|--333------------|
E--------------|-----------------|

Chorus:

Sasalubungin....
e-------------------------------------------|
b-------------------------------------------|
g--5555--------77777--55555----------77777--|
D--5555--5555--77777--55555---55555--77777--| Guitar 1:
A--3333--5555--55555--33333---55555--55555--|
E--------3333-----------------33333---------|

e------3333---1111--|
b-111--3333---3333--|
g-000--0000---2222--| Guitar 2:
D-222--0000---------|
A-333--2222---------|
E------3333---------|

Kung ayaw man...
e---------------------|
b---------------------|
g--77777--------------|
D--77777---777777-----|Guitar 1:
A--55555---777777-----|
E----------555555-----|

Accompanied by Guitar 1:(kung ayaw man..)
e--111---------1111--------|
b--333---111---3333--1111--|
g--222---222---2222--2222--|
D--------222---------2222--|
A--------------------------|
E--------------------------|

Interlude:

Loneness...
e----------------------------------|
b----------------5---------------5-|
g-5p4p5p4p5p4p5p4--5p4p5p4p5p4p5---|
D----------------------------------|
A----------------------------------|
E----------------------------------|

Then (accompanied by piano)

e------333---111--|
b-111--333---333--|
g-000--000---222--| 4x
D-222--000--------|
A-333--222--------|
E------333--------|

Repeat chorus:

Bridge:

Natin ang kinabuksan..            
e-------------------------------------------|
b-------------------------------------------|
g--5555--------77777--55555----------77777--|
D--5555--5555--77777--55555---55555--77777--| Guitar 1:
A--3333--5555--55555--33333---55555--55555--|
E--------3333-----------------33333---------|

e------3333---1111--|
b-111--3333---3333--|
g-000--0000---2222--| Guitar 2:
D-222--0000---------|
A-333--2222---------|
E------3333---------|
Kung ayaw man...
e---------------------|
b---------------------|
g--77777--------------|
D--77777---777777-----|Guitar 1:
A--55555---777777-----|
E----------555555-----|

Gumawa nalang tayo ng paraan..
e-------------------------------|----------------|
b-------------------------------|----------------|
g-----5----------5---------5----|--55---------55-|
D---5---5------5---5-----5---5--|-----55---------|
A-3---------55------------------|---------33-----|
E----------------------5--------|----------------|


Fade:



Suggest correction
Give kudos to tab author, rate the tab!
1 2 3 4 5
comments
print report bad tab
5 comments total. Showing first comments.
0 reply
eheads22 72 Jan 18, 2009 11:37 PM

male ung plucking...

0 reply
hillraiser 10 Jun 06, 2009 04:05 AM

mali ung intro.,
ausin mo nga ang pag gawa ng tabs,
para merong maka appreciate!!

0 reply
markchordz 16,994 Jun 10, 2009 11:33 PM

hahaha...eh kaw na umayos

guest
You may want to rate the tab now too:
select rating
Wanna post a correction for this tab? Suggest correction