Oops, an error
Loading. Please wait.

Antukin Tab

version 2
version 2

Whole song

94,931 views 177 this week
17 commentsread comments
1 2 3 4 5
excellent!
x 14
add to favorites
launch autoscroll
font size
0
reset
how to read this tab
guitar tuner
Autoscroll
slow
fast
+/-
esc
set tempo
stop
Help us to improve Ultimate-Guitar.com Take our survey!
×
Author
Difficulty
novice
[Intro/verse]

e|--------------------------------------------|----------------------|
b|--------------------------------------------|----------------------|
g|-------5-5------------5-5------------5-5----|---5-5----------------|
D|----5-5---5-5------5-5---5-5------5-5---5-5-|-------5-5--2-2-5-5---|
A|-3-3------------5-5-------------------------|----------------------|
E|-------------------------------5-5----------|----------------------|
 
Tpos ulit.. ulit p nian bui hanggang mtapus verse tapos…


[Refrain]
                  Acoustic to:
                          F      Dm
e|--------------------|--1-1-1---1-1-1------|
b|--1-1-1-1--6-6-6-6--|--1-1-1---3-3-3------|
g|--2-2-2-2--7-7-7-7--|--2-2-2---2-2-2------|
D|--3-3-3-3--7-7-7-7--|--3-3-3--------------|
A|--3-3-3-3--5-5-5-5--|--3-3-3--------------|
E|--1-1-1-1-----------|--1-1-1--------------|
            
2x un


[Chorus]

e|--------------------------------|
b|--------------------6-6-6-6-6-6-|
g|--5-5-5-5-----------7-7-7-7-7-7-|
D|--5-5-5-5--5-5-5-5--7-7-7-7-7-7-|      3x 
A|--3-3-3-3--5-5-5-5--5-5-5-5-5-5-|
E|-----------3-3-3-3--------------|

At isang acoustic company 
(ksama ang lower strings sa acoustc)


(kung ayaw my dahilan..)
e|---------------------------------------------------------|
b|----------------------------6-6-6-6-6-6-6-6-6------------|
g|--2-2-2-2-2-----------------7-7-7-7-7-7-7-7-7------------|
D|--3-3-3-3-3--7-7-7-7-7-7----7-7-7-7-7-7-7-7-7------------|
A|--3-3-3-3-3--7-7-7-7-7-7----5-5-5-5-5-5-5-5-5------------|
E|--1-1-1-1-1--5-5-5-5-5-5---------------------------------|


[Pre verse/verse]

e|--------------------------------------------|----------------------|
b|--------------------------------------------|----------------------|
g|-------5-5------------5-5------------5-5----|---5-5----------------|
D|----5-5---5-5------5-5---5-5------5-5---5-5-|-------5-5--2-2-5-5---|
A|-3-3------------5-5-------------------------|----------------------|
E|-------------------------------5-5----------|----------------------|
 

[Refrain]
                  
                         F       Dm
e|--------------------|--1-1-1---1-1-1------|
b|--1-1-1-1--6-6-6-6--|--1-1-1---3-3-3------|
g|--2-2-2-2--7-7-7-7--|--2-2-2---2-2-2------|
D|--3-3-3-3--7-7-7-7--|--3-3-3--------------|
A|--3-3-3-3--5-5-5-5--|--3-3-3--------------|
E|--1-1-1-1-----------|--1-1-1--------------|
            

[Chorus]

e|--------------------------------|
b|--------------------6-6-6-6-6-6-|
g|--5-5-5-5-----------7-7-7-7-7-7-|
D|--5-5-5-5--5-5-5-5--7-7-7-7-7-7-|      3x 
A|--3-3-3-3--5-5-5-5--5-5-5-5-5-5-|
E|-----------3-3-3-3--------------|

(kung ayaw my dahilan..)
e|---------------------------------------------------------|
b|----------------------------6-6-6-6-6-6-6-6-6------------|
g|--2-2-2-2-2-----------------7-7-7-7-7-7-7-7-7------------|
D|--3-3-3-3-3--7-7-7-7-7-7----7-7-7-7-7-7-7-7-7------------|
A|--3-3-3-3-3--7-7-7-7-7-7----5-5-5-5-5-5-5-5-5------------|
E|--1-1-1-1-1--5-5-5-5-5-5---------------------------------|

Tpus eto
>>Bridge b to???
Long as we stand as one>>
e|-------0-------------|
b|-----0---0-----------|
g|---5-----------------|
D|---------------------|
A|---------------------|
E|---------------------|

Tpus non>>


[Solo]

Keyboard to e. mlay q sa tab nian 

e|--------------------------------|
b|--------------------------------|
g|--5-5-5-5-----------------------|
D|--5-5-5-5--5-5-5-5--7-7-7-7-7-7-|      3x 
A|--3-3-3-3--5-5-5-5--7-7-7-7-7-7-|
E|-----------3-3-3-3--5-5-5-5-5-5-|

e|---------------------------------------------------------|
b|----------------------------6-6-6-6-6-6-6-6-6------------|
g|--2-2-2-2-2-----------------7-7-7-7-7-7-7-7-7------------|
D|--3-3-3-3-3--7-7-7-7-7-7----7-7-7-7-7-7-7-7-7------------|
A|--3-3-3-3-3--7-7-7-7-7-7----5-5-5-5-5-5-5-5-5------------|
E|--1-1-1-1-1--5-5-5-5-5-5---------------------------------|

Repeat chorus:

Last line: “kung gusto hahalikan nalang natin” 

Then:
Last chorus


[Outro]

Gumawa nalang tayo ng paraan
Gumawa nalang tayo ng (baby)!!!!
Gumawa nalang tayo ng paraan>>

e|--------------------------------------------|----------------------|
b|--------------------------------------------|----------------------|
g|-------5-5------------5-5------------5-5----|---5-5----------------|
D|----5-5---5-5------5-5---5-5------5-5---5-5-|-------5-5--2-2-5-5---| tatlong ulit
A|-3-3------------5-5-------------------------|----------------------|
E|-------------------------------5-5----------|----------------------|

e|------------------------------------------|
b|------------------------------------------|
g|-------5-5------------5-5--------5~~------|
D|----5-5---5-5------5-5-----------5~~------|
A|-3-3------------5-5--------------3~~------|
E|------------------------------------------|

Bagsak sa  C


Elow sa bakal bois
hi nay!
Haha pti sa taguro
Labyu!!


END! c;
RAWR!!
(::[]::)


************************************

| ~  Vibrato

************************************
Suggest correction
What's this?
You can suggest a correction to this tab. Community and Mods will review your correction and vote to approve or reject it.
comments
print report bad tab
17 comments total. Showing first comments. show 1 bad comment
+1 reply
jamasteX 45 wrote on May 13 2009, 12:52 am

mas maayos toh keysa sa nauna

-1 reply
markchordz 2,312 wrote on May 17 2009, 07:14 am

di mo alam ata kumapa pare eh..kaya kinopya mo nalang un akin..hehehe

guest
You may want to rate the tab now too:
select rating
Please do not post tabs as comments. Select "correction" instead!