Oops, an error
Loading. Please wait.

Antukin Tab

version 2
version 2

Whole song

91,955 views 157 this week
16 commentsread comments
1 2 3 4 5
excellent!
x 14
add to favorites
launch autoscroll
font size
0
reset
how to read this tab
guitar tuner
Tab Pro tools
  • play this tab
  • loop segment
  • change instrument
  • show fretboard
  • metronome
×
Best way to learn
"Antukin"
Autoscroll
slow
fast
+/-
esc
set tempo
stop
Contributor
Difficulty
novice
Title: Antukin
Artist: Rico Blanco
Album: Your Universe

niTab ni: jonathan david (angeles city science high school) 

Tuning: Standard-E

Intro/verse:

e--------------------------------|------------------|
b--------------------------------|------------------|
g-----55---------55---------55---|---55-------------|
D---55--55-----55--55-----55--55-|------55--22-55---|
A-33---------55------------------|------------------|
E-----------------------55-------|------------------|
 
Tpos ulit.. ulit p nian bui hanggang mtapus verse tapos…

Refrain:
                  Acoustic to:
                   F    Dm
e--------------|--111---111------|
b--1111--6666--|--111---333------|
g--2222--7777--|--222---222------|
D--3333--7777--|--333------------|
A--3333--5555--|--333------------|
E--1111--------|--111------------|
            
2x un

Chorus:

e---------------------|
b--------------666666-|
g--5555--------777777-|
D--5555--5555--777777-|      3x 
A--3333--5555--555555-|
E--------3333---------|

At isang acoustic company 
(ksama ang lower strings sa acoustc)


(kung ayaw my dahilan..)
e-----------------------------------------|
b-------------------666666-666------------|
g--22222------------777777-777------------|
D--33333--777777----777777-777------------|
A--33333--777777----555555-555------------|
E--11111--555555--------------------------|


Pre verse/verse:

e--------------------------------|------------------|
b--------------------------------|------------------|
g-----55---------55---------55---|---55-------------|
D---55--55-----55--55-----55--55-|------55--22-55---|
A-33---------55------------------|------------------|
E-----------------------55-------|------------------|
 

Refrain:
                  
                   F     Dm
e--------------|--111---111------|
b--1111--6666--|--111---333------|
g--2222--7777--|--222---222------|
D--3333--7777--|--333------------|
A--3333--5555--|--333------------|
E--1111--------|--111------------|
            
Chorus:

e---------------------|
b--------------666666-|
g--5555--------777777-|
D--5555--5555--777777-|      3x 
A--3333--5555--555555-|
E--------3333---------|

(kung ayaw my dahilan..)
e-----------------------------------------|
b-------------------666666-666------------|
g--22222------------777777-777------------|
D--33333--777777----777777-777------------|
A--33333--777777----555555-555------------|
E--11111--555555--------------------------|

Tpus eto
>>Bridge b to???
Long as we stand as one>>
e-------0-------------|
b-----0---0-----------|
g---5-----------------|
D---------------------|
A---------------------|
E---------------------|

Tpus non>>
Solo:
Keyboard to e. mlay q sa tab nian 

e---------------------|
b---------------------|
g--5555---------------|
D--5555--5555--777777-|      3x 
A--3333--5555--777777-|
E--------3333--555555-|

e-----------------------------------------|
b-------------------666666-666------------|
g--22222------------777777-777------------|
D--33333--777777----777777-777------------|
A--33333--777777----555555-555------------|
E--11111--555555--------------------------|

Repeat chorus:

Last line: “kung gusto hahalikan nalang natin” 

Then:
Last chorus

Outro:

Gumawa nalang tayo ng paraan
Gumawa nalang tayo ng (baby)!!!!
Gumawa nalang tayo ng paraan>>

e--------------------------------|------------------|
b--------------------------------|------------------|
g-----55---------55---------55---|---55-------------|
D---55--55-----55--55-----55--55-|------55--22-55---| tatlong ulit
A-33---------55------------------|------------------|
E-----------------------55-------|------------------|
e-----------------------------------|
b-----------------------------------|
g-----55---------55--------5~~------|
D---55--55-----55----------5~~------|
A-33---------55------------3~~------|
E-----------------------------------|

Bagsak sa  C



Elow sa bakal bois
hi nay!
Haha pti sa taguro
Labyu!!





END! c;
RAWR!!
(::[]::)




comments
print report bad tab
16 comments total. Showing first comments. show 1 bad comment
+1 reply
jamasteX wrote on May 13 2009, 12:52 am

mas maayos toh keysa sa nauna

-1 reply
markchordz wrote on May 17 2009, 07:14 am

di mo alam ata kumapa pare eh..kaya kinopya mo nalang un akin..hehehe

I want to post or [tab]
guest
You may want to rate the tab now too:
select rating
Please do not post tabs as comments. Select "correction" instead!