Oops, an error
Loading. Please wait.

Antukin Tab

version 3
version 3

Whole song

10,869 views 15 this week
4 commentsread comments
1 2 3 4 5
please rate
add to favorites
launch autoscroll
font size
0
reset
how to read this tab
guitar tuner
Autoscroll
slow
fast
+/-
esc
set tempo
stop
Help us to improve Ultimate-Guitar.com Take our survey!
×
Author
-------------------------------------------------------------------------------
                             ANTUKIN - Rico Blanco
-------------------------------------------------------------------------------
Tabbed by: Jomar Ebuenga
Email: th0inkz@yahoo.com

Tuning: Standard

Intro:

e|--------------------------------------------------------------------------|
B|--------------------------------------------------------------------------|
G|---------55-----------55-----------55-----55------------------------------|
D|------55----55-----55----55-----55----55-----55----55---------------------|
A|----------------55------------------------------77------------------------|
E|---88------------------------55-------------------------------------------|

Stanza:

e|--------------------------------------------------------------------------|
B|--------------------------------------------------------------------------|
G|---------55-----------55-----------55-----55------------------------------|
D|------55----55-----55----55-----55----55-----55----55---------------------|
A|----------------55------------------------------77------------------------|
E|---88------------------------55-------------------------------------------|

e|---1---5-------------------------------------|
B|---1---6-------------------------------------|
G|---2---7-------------------------------------|
D|---3---7-------------------------------------|
A|---3---5-------------------------------------|
E|---1-----------------------------------------|

Chorus:

e|-------3---5---------------------------------|
B|-------3---6---------------------------------|
G|---5---3---7---------------------------------| 3x
D|---5---5---7---------------------------------|
A|---3---5---5---------------------------------|
E|-------3-------------------------------------|

e|---1---5-------------------------------------|
B|---1---6-------------------------------------|
G|---2---7-------------------------------------|
D|---3---7-------------------------------------|
A|---3---5-------------------------------------|
E|---1-----------------------------------------|

Bridge:

e|-------------------------------1-------------|
B|-------------------------------1-------------|
G|---5454545454545454---3x-------2-------------|
D|-------------------------------3-------------|
A|-------------------------------3-------------|
E|-------------------------------1-------------|

Adlib: Gawa-gawa ko lang to >.<

e|--------------------------------------------------------------------------|
B|-------------8---8----------8-5---5----------5-------5--------------------|
G|-------5-7-9---9--------5-7-----7--------5-7---7-5-7---5------------------|
D|---5-7--------------5-7--------------5-7-----------------7--77-77---------|
A|------------------------------------------------------------77------------|
E|------------------------------------------------------------55------------|

e|--------------------------------------------------------------------------|
B|-------------8---8----------8-5---5--------5-5-5--5-----5-5--5------------|
G|-------5-7-9---9--------5-7-----7------5-7---7^7^---7-5-7^7^---7-5--------|
D|---5-7--------------5-7--------------7-----------------------------7------|
A|--------------------------------------------------------------------------|
E|--------------------------------------------------------------------------|

e|-------------------------8-10-8-10--10-12-10-12---------------------------|
B|--------------8-10-8-10---------------------------------------------------|
G|---9-10-9-10--------------------------------------------------------------|
D|--------------------------------------------------77-77-77-77-------------|
A|--------------------------------------------------77-77-77-77-------------|
E|--------------------------------------------------55-55-55-55-------------|

                   T                T                T
e|--------------------------------------------------------------------------|
B|--------------------------------------------------------------------------|
G|---9h12p9h12h14-17p14p12p9h12h14-17p14p12p9h12h14-17p14p12p9h12h14--------|
D|--------------------------------------------------------------------------|
A|--------------------------------------------------------------------------|
E|--------------------------------------------------------------------------|


      T                 T                T
e|--------------------------------------------------------------------------|
B|--------------------------------------------------------------------------|
G|---17p14p12p10h12h14-19p14p12p10h12h14-19p14p12--1010-99-1010-1212--------|
D|--------------------------------------------------------------------------|
A|--------------------------------------------------------------------------|
E|--------------------------------------------------------------------------|

Outro:

e|--------------------------------------------------------------------------|
B|--------------------------------------------------------------------------|
G|---------55-----------55-----------55-----55------------------------------|
D|------55----55-----55----55-----55----55-----55----55---------------------|
A|----------------55------------------------------77------------------------|
E|---88------------------------55-------------------------------------------|

e|--------------------------------------------------------------------------|
B|--------------------------------------------------------------------------|
G|---------55-----------5---------------------------------------------------|
D|------55----55-----55----5------------------------------------------------|
A|----------------55-------7------------------------------------------------|
E|---88--------------------5------------------------------------------------|

| h  hammer-on
| p  pull-off
| T  tap
| ^  bend up


Intro
Stanza
Chorus
Intro
Stanza
Chorus
Bridge
Adlib
Chorus
Chorus
Outro

===============================================================================
Suggest correction
What's this?
You can suggest a correction to this tab. Community and Mods will review your correction and vote to approve or reject it.
comments
We did not receive enough feedback on this tab! Please rate:
print report bad tab
1 2 3 4 5
4 comments total. Showing first comments.
0 reply
markchordz 2,312 wrote on November 18 2009, 03:38 am

-------------------------------|----------------|
b-------------------------------|----------------|
g-----5----------5---------5----|--55---------55-|
D---5---5------5---5-----5---5--|-----55---------|
A-3---------55------------------|---------33-----|
E----------------------5--------|----------------|

hehehhe...ito un intro pare....don't make complicated.hehehehe

0 reply
th0inkz 172 wrote on November 27 2009, 10:16 pm

e|--------------------------------------------------------------------------|
B|--------------------------------------------------------------------------|
G|---------55-----------55-----------55-----55------------------------------|
D|------55----55-----55----55-----55----55-----55-22-55---------------------|
A|---33-----------55--------------------------------------------------------|
E|-----------------------------55-------------------------------------------|

baka ganto gusto mo sabihin...

0 reply
markchordz 2,312 wrote on November 30 2009, 02:20 am

panoorin mo kasi ah..ahahaha

guest
You may want to rate the tab now too:
select rating
Please do not post tabs as comments. Select "correction" instead!